Alkaline Trio - Armageddon Chords & Tabs

 

Armageddon Chords & Tabs

Alkaline Trio Chords & Tabs

Version: 2 Type: Bass Tab

Armageddon Bass Tab

Armageddon                              
                                                        
--------------------------|--------------------------|
--------6-----------6-----|--------------------------|
--7--9-----9--7--9-----9--|--4--4--4--4--0--0--0--0--|
--------------------------|--------------------------|
                                                    
--------------------------|--------------------------|
--------6-----------6-----|--------------------------|
--7--9-----9--7--9-----9--|--4--4--4--4--0--0--0--0--|
--------------------------|--------------------------|
                                                      
--------------------------|--------------------------|
--------6-----------6-----|--------------------------|
--7--9-----9--7--9-----9--|--4--4--4--4--0--0--0--0--|
--------------------------|--------------------------|
                                                      
--------------------------|--------------------------|
--------------------------|--------------------------|
--2--2--2--2--2--2--2--2--|--2--2--2--2--2--2--2--2--|
--------------------------|--------------------------|
                                                      
--------------------------|--------------------------|
--------------6--6--4--6--|--------------6--6--4--2--|
--4--4--4--4--------------|--4--4--4--4--------------|
--------------------------|--------------------------|
                                                        
--------------------------|----------------------------|
--------------7--9--7--6--|----------------------------|
--0--0--0--0--------------|--7--7--7--9--11--11--9--9--|
--------------------------|----------------------------|
                                                      
--------------------------|--------------------------|
--------------6--6--4--6--|--------------6--6--4--2--|
--4--4--4--4--------------|--4--4--4--4--------------|
--------------------------|--------------------------|
                                                      
--------------------------|--------------------------|
--------------7--9--7--6--|--------------------------|
--0--0--0--0--------------|--7--7--9--9--7--7--9--9--|
--------------------------|--------------------------|
                                                      
--------------------------|--------------------------|
--------------6--6--4--6--|--------------6--6--4--2--|
--4--4--4--4--------------|--4--4--4--4--------------|
--------------------------|--------------------------|
                                                        
--------------------------|----------------------------|
--------------7--9--7--6--|----------------------------|
--0--0--0--0--------------|--7--7--7--9--11--11--9--9--|
--------------------------|----------------------------|
                                                      
--------------------------|--------------------------|
--------------6--6--4--6--|--------------6--6--4--2--|
--4--4--4--4--------------|--4--4--4--4--------------|
--------------------------|--------------------------|
                                                      
--------------------------|--------------------------|
--------------7--9--7--6--|--------------------------|
--0--0--0--0--------------|--------------------------|
--------------------------|--7--7--7--7--7--7--7--7--|
                                                      
--------------------------|--------------------------|
--------6-----------6-----|--------------------------|
--7--9-----9--7--9-----9--|--4--4--4--4--0--0--0--0--|
--------------------------|--------------------------|
                                                      
--------------------------|--------------------------|
--------6-----------6-----|--------------------------|
--7--9-----9--7--9-----9--|--4--4--4--4--0--0--0--0--|
--------------------------|--------------------------|
[ Tab from: http://www.guitartabs.cc/tabs/a/alkaline_trio/armageddon_btab_ver_2.html ]
                                                      
--------------------------|--------------------------|
--------------6--6--4--6--|--------------6--6--4--2--|
--4--4--4--4--------------|--4--4--4--4--------------|
--------------------------|--------------------------|
                                                        
--------------------------|----------------------------|
--------------7--9--7--6--|----------------------------|
--0--0--0--0--------------|--7--7--7--9--11--11--9--9--|
--------------------------|----------------------------|
                                                      
--------------------------|--------------------------|
--------------6--6--4--6--|--------------6--6--4--2--|
--4--4--4--4--------------|--4--4--4--4--------------|
--------------------------|--------------------------|
                                                      
--------------------------|--------------------------|
--------------7--9--7--6--|--------------------------|
--0--0--0--0--------------|--7--7--9--9--7--7--9--9--|
--------------------------|--------------------------|
                                                      
--------------------------|--------------------------|
--------------6--6--4--6--|--------------6--6--4--2--|
--4--4--4--4--------------|--4--4--4--4--------------|
--------------------------|--------------------------|
                                                        
--------------------------|----------------------------|
--------------7--9--7--6--|----------------------------|
--0--0--0--0--------------|--7--7--7--9--11--11--9--9--|
--------------------------|----------------------------|
                                                      
--------------------------|--------------------------|
--------------6--6--4--6--|--------------6--6--4--2--|
--4--4--4--4--------------|--4--4--4--4--------------|
--------------------------|--------------------------|
                                                      
--------------------------|--------------------------|
--------------7--9--7--6--|--------------------------|
--0--0--0--0--------------|--------------------------|
--------------------------|--7--7--7--7--7--7--7--7--|
                                                      
--------------------------|--------------------------|
--------------------------|--------------------------|
--7--7--7--7--7--7--7--7--|--7--7--7--7--7--7--7--7--|
--------------------------|--------------------------|
                                                      
--------------------------|--------------------------|
--------------------------|--------------------------|
--7--7--7--7--7--7--7--7--|--7--7--7--7--7--7--7--7--|
--------------------------|--------------------------|
                                                      
--------------------------|--------------------------|
--------------------------|--------------------------|
--4--4--4--4--4--4--4--4--|--4--4--4--4--4--4--4--4--|
--------------------------|--------------------------|
                                                      
--------------------------|--------------------------|
--------------------------|--------------------------|
--------------------------|--------------------------|
--7--7--7--7--7--7--7--7--|--5--5--5--5--5--5--5--5--|
                                                      
--------------------------|--------------------------|
--------------------------|--------------------------|
--7--7--7--7--7--7--7--7--|--7--7--7--7--7--7--7--7--|
--------------------------|--------------------------|
                                                        
--------------------------|----------------------------|
--------------------------|------------7--9--7---------|
--7--7--7--7--7--7--7--7--|--7--9--11-----------11--9--|
--------------------------|----------------------------|
                                                      
--------------------------|--------------------------|
--------------6--6--4--6--|--------------6--6--4--2--|
--4--4--4--4--------------|--4--4--4--4--------------|
--------------------------|--------------------------|
                                                      
--------------------------|--------------------------|
--------------------------|--------------------------|
--------------------------|--------------------------|
--7--7--7--7--7--7--7--7--|--5--5--5--5--5--5--5--5--|
                                                      
--------------------------|--------------------------|
--------6-----------6-----|--------------------------|
--7--9-----9--7--9-----9--|--4--4--4--4--0--0--0--0--|
--------------------------|--------------------------|
                                                      
--------------------------|--------------------------|
--------6-----------6-----|--------------------------|
--7--9-----9--7--9-----9--|--4--4--4--4--0--0--0--0--|
--------------------------|--------------------------|
                                                      
--------------------------|--------------------------|
--------6-----------6-----|--------------------------|
--7--9-----9--7--9-----9--|--4--4--4--4--0--0--0--0--|
--------------------------|--------------------------|
                                                                          
--------------------------|--------------------------|-------------------|
--------------------------|--------------------------|-------------------|
--2--2--2--2--2--2--2--2--|--2--2--2--2--2--2--2--2--|--4----------------|
--------------------------|--------------------------|-------------------|
                                                         
------------------|------------------|------------------|
------------------|------------------|------------------|
------------------|------------------|------------------|
------------------|------------------|------------------|
                                                      
--------------------------|--------------------------|
--------------6--6--4--6--|--------------6--6--4--2--|
--4--4--4--4--------------|--4--4--4--4--------------|
--------------------------|--------------------------|
                                                      
--------------------------|--------------------------|
--------------7--9--7--6--|--------------------------|
--0--0--0--0--------------|--7--7--9--9--7--7--9--9--|
--------------------------|--------------------------|
                                                      
--------------------------|--------------------------|
--------------6--6--4--6--|--------------6--6--4--2--|
--4--4--4--4--------------|--4--4--4--4--------------|
--------------------------|--------------------------|
                                                        
--------------------------|----------------------------|
--------------7--9--7--6--|----------------------------|
--0--0--0--0--------------|--7--7--7--9--11--11--9--9--|
--------------------------|----------------------------|
                                                      
--------------------------|--------------------------|
--------------6--6--4--6--|--------------6--6--4--2--|
--4--4--4--4--------------|--4--4--4--4--------------|
--------------------------|--------------------------|
                                                      
--------------------------|--------------------------|
--------------7--9--7--6--|--------------------------|
--0--0--0--0--------------|--------------------------|
--------------------------|--7--7--7--7--7--7--7--7--|
                                                      
--------------------------|--------------------------|
--------------------------|--------------------------|
--7--7--7--7--7--7--7--7--|--7--7--7--7--7--7--7--7--|
--------------------------|--------------------------|
                                                      
--------------------------|--------------------------|
--------------------------|--------------------------|
--7--7--7--7--7--7--7--7--|--7--7--7--7--7--7--7--7--|
--------------------------|--------------------------|
                                                      
--------------------------|--------------------------|
--------------6--6--4--6--|--------------6--6--4--2--|
--4--4--4--4--------------|--4--4--4--4--------------|
--------------------------|--------------------------|
                                                      
--------------------------|--------------------------|
--------------------------|--------------------------|
--------------------------|--------------------------|
--7--7--7--7--7--7--7--7--|--5--5--5--5--5--5--5--5--|
                                                      
--------------------------|--------------------------|
--------------------------|--------------------------|
--7--7--7--7--7--7--7--7--|--7--7--7--7--7--7--7--7--|
--------------------------|--------------------------|
                                                        
--------------------------|----------------------------|
--------------------------|------------7--9--7---------|
--7--7--7--7--7--7--7--7--|--7--9--11-----------11--9--|
--------------------------|----------------------------|
                                                      
--------------------------|--------------------------|
--------------6--6--4--6--|--------------6--6--4--2--|
--4--4--4--4--------------|--4--4--4--4--------------|
--------------------------|--------------------------|
                                                      
--------------------------|--------------------------|
--------------------------|--------------------------|
--------------------------|--------------------------|
--7--7--7--7--7--7--7--7--|--5--5--5--5--5--5--5--5--|
                                                      
--------------------------|--------------------------|
--------------------------|--------------------------|
--4--4--4--4--4--4--4--4--|--6--6--6--6--6--6--6--6--|
--------------------------|--------------------------|
                                                                      
----------------------------------|----------------------------------|
----------------------------------|--14--14----------14--14----------|
--12--12--12--12--12--12--12--12--|----------12--12----------12--12--|
----------------------------------|----------------------------------|
                                                      
--------------------------|--------------------------|
--------------------------|--------------------------|
--4--4--4--4--4--4--4--4--|--6--6--6--6--6--6--6--6--|
--------------------------|--------------------------|
                                                                      
----------------------------------|----------------------------------|
------------------14--14----------|----------------------------------|
--12--12--12--12----------12--12--|--12--12--12--12--11--11--12--12--|
----------------------------------|----------------------------------|
                                                      
--------------------------|--------------------------|
--------------------------|--------------------------|
--4--4--4--4--4--4--4--4--|--6--6--6--6--6--6--6--6--|
--------------------------|--------------------------|
                                                                      
----------------------------------|----------------------------------|
----------------------------------|--14--14----------14--14----------|
--12--12--12--12--12--12--12--12--|----------12--12----------12--12--|
----------------------------------|----------------------------------|
                                                      
--------------------------|--------------------------|
--------------------------|--------------------------|
--4--4--4--4--4--4--4--4--|--2--2--2--2--2--2--2--2--|
--------------------------|--------------------------|
                                                      
--------------------------|--------------------------|
--------------------------|--------------------------|
--0--0--0--0--0--0--0--0--|--0--0--0--0--0--0--0--0--|
--------------------------|--------------------------|
                                                      
--------------------------|--------------------------|
--------------------------|--------------------------|
--7--7--7--7--7--7--7--7--|--7--7--7--7--7--7--7--7--|
--------------------------|--------------------------|
                                                      
--------------------------|--------------------------|
--------------------------|--------------------------|
--7--7--7--7--7--7--7--7--|--7--7--7--7--7--7--7--7--|
--------------------------|--------------------------|
                                                      
--------------------------|--------------------------|
--------------6--6--4--6--|--------------6--6--4--2--|
--4--4--4--4--------------|--4--4--4--4--------------|
--------------------------|--------------------------|
                                                      
--------------------------|--------------------------|
--------------------------|--------------------------|
--------------------------|--------------------------|
--7--7--7--7--7--7--7--7--|--5--5--5--5--5--5--5--5--|
                                                      
--------------------------|--------------------------|
--------------9--9--------|--------------9--7--6--7--|
--7--7--7--7--------7--7--|--7--7--7--7--------------|
--------------------------|--------------------------|
                                                      
--------------------------|--------------------------|
--------------9--9--------|--------------------------|
--7--7--7--7--------7--7--|--7--7--7--7--7--7--7--7--|
--------------------------|--------------------------|
                                                      
--------------------------|--------------------------|
--------------6--6--4--6--|--------------6--6--4--2--|
--4--4--4--4--------------|--4--4--4--4--------------|
--------------------------|--------------------------|
                                                                           
--------------------------|--------------------------|-------------------||
--------------------------|--------------------------|-------------------||
--------------------------|--------------------------|-------------------||
--7--7--7--7--7--7--7--7--|--5--5--5--5--5--5--5--5--|--0----------------||