Alkaline Trio - Another Innocent Girl Chords & Tabs

 

Another Innocent Girl Chords & Tabs

Alkaline Trio Chords & Tabs

Version: 1 Type: Tab 0 ratings
1 star 2 stars 3 stars 4 stars 5 stars
comments

Another Innocent Girl Tab

ANOTHER INNOCENT GIRL - Alkaline Trio

By:Justin Cloude(faded5150@islc.net)

Standard Tuning
Middle-Light Distortion
* - palm mute
/ - slide

I think this is right, if it's not...O well, it sounds right to me.  
Listen to the album for the exact rhythms and positionings. ENJOY!!!

"1st Pre-verse"
e|--------------------------------------------------------------------|
B|--------------------------------------------------------------------|
G|--6--6666666-----------77777777777--6666666-----------7777777777----|
D|-----7777777--6666666--77777777777--7777777--6666666--7777777777----|
A|-----7777777--7777777--55555555555--7777777--7777777--5555555555----|
E|-----5555555------------------------5555555-------------------------|

"1st Verse"-
He likes to act like he's all grown up.
He wanted to grow up to be
An actor, but he never told anybody.
He likes to spill all of his guts
On the top of a well-stocked bar,
And then swallow them bit by bit, remembering every scar.
e|--------------------------------------------------------------------|
B|-----5--------------------5-----5-----5---------5-----5-----5-------|
G|--6--------------------6-----6-----6--6------6-----6-----6--6-------|
D|--------------------------------------0---------------------0-------|
A|--------------------------------------------------------------------|
E|--------------------------------------------------------------------|

"1st Pre-chorus"-
It's a valid reason
For every drink.
And a new tattoo is a new reason to think.
e|--------------------------------------------------------------------|
B|--------------------------------------------------------------------|
G|------------------444444/66--7777777--------------------77777777777-|
D|------------------444444/66--7777777--4444444--2222222--77777777777-|
A|--444444--222222--222222/44--5555555--4444444--2222222--55555555555-|
E|--222222--000000----------------------2222222--0000000--------------|
    ******  ******

"2nd Pre-verse"
e|--------------------------------------------------------------------|
B|--------------------------------------------------------------------|
G|--6666666-----------77777777777--6666666-----------7777777777-------|
D|--7777777--6666666--77777777777--7777777--6666666--7777777777-------|
A|--7777777--7777777--55555555555--7777777--7777777--5555555555-------|
E|--5555555------------------------5555555----------------------------|

"2nd Verse"-
He likes to pretend that he's all sewn up.
It makes for a much stronger case,
But there is blood underneath that skin
That scar is not so easy to erase.
He walks with a glass cane now. 
He's careful, when holding his body up straight.
Can't go outside anymore when it's raining.
Can't smash up that beautiful face.
e|--------------------------------------------------------------------|
B|-----5--------------------5-----5-----5---------5-----5-----5-------|
G|--6--------------------6-----6-----6--6------6-----6-----6--6-------|
D|--------------------------------------0---------------------0-------|
A|--------------------------------------------------------------------|
E|--------------------------------------------------------------------|
[ Tab from: http://www.guitartabs.cc/tabs/a/alkaline_trio/another_innocent_girl_tab.html ]
"2nd Pre-chorus"-
Another innocent girl, just made his list.
That self-pity shit, It's just too hard to resist.
e|--------------------------------------------------------------------|
B|--------------------------------------------------------------------|
G|------------------444444/66--7777777--------------------77777777777-|
D|------------------444444/66--7777777--4444444--2222222--77777777777-|
A|--444444--222222--222222/44--5555555--4444444--2222222--55555555555-|
E|--222222--000000----------------------2222222--0000000--------------|
    ******  ******
e|---------|
B|---------|
G|--5/7/9--|
D|--x/x/x--|
A|--3/5/7--|
E|---------|

"1st Chorus"-
Yeah, when we go home, you'll see, 
That this part of him is now part of me.
e|--------------------------------------------------------------------|
B|--------------------------------------------------------------------|
G|--666666--777777--999999--7777777--666666--777777--999999--7777777--|
D|--777777--777777--777777--7777777--777777--777777--777777--7777777--|
A|--777777--777777--777777--5555555--777777--777777--777777--5555555--|
E|--555555--555555--555555-----------555555--555555--555555-----------|

"3rd Pre-verse"
e|--------------------------------------------------------------------|
B|--------------------------------------------------------------------|
G|--6666666-----------77777777777--6666666-----------7777777777-------|
D|--7777777--6666666--77777777777--7777777--6666666--7777777777-------|
A|--7777777--7777777--55555555555--7777777--7777777--5555555555-------|
E|--5555555------------------------5555555----------------------------|

"3rd Verse"-
He likes to act like he's all grown up.
He wanted to grow up to be
An actor, but he never told anybody.
He likes to spill all of his guts
On the top of a well-stocked bar,
And then swallow them bit by bit, remembering every scar
e|--------------------------------------------------------------------|
B|-----5--------------------5-----5-----5---------5-----5-----5-------|
G|--6--------------------6-----6-----6--6------6-----6-----6--6-------|
D|--------------------------------------0---------------------0-------|
A|--------------------------------------------------------------------|
E|--------------------------------------------------------------------|

"3rd Pre-chorus"-
It's a valid reason
For stronger drinks.
And a new tattoo is a new reason to think.
e|--------------------------------------------------------------------|
B|--------------------------------------------------------------------|
G|------------------444444/66--7777777--------------------77777777777-|
D|------------------444444/66--7777777--4444444--2222222--77777777777-|
A|--444444--222222--222222/44--5555555--4444444--2222222--55555555555-|
E|--222222--000000----------------------2222222--0000000--------------|
    ******  ******
e|---------|
B|---------|
G|--5/7/9--|
D|--x/x/x--|
A|--3/5/7--|
E|---------|

"2nd Chorus"-
Yeah, when we go home, you'll see, 
That this part of him is now part of me.
Yeah, when we go home, you'll see,
That this part of him is controlling me.
e|--------------------------------------------------------------------|
B|--------------------------------------------------------------------|
G|--666666--777777--999999--7777777--666666--777777--999999--7777777--|
D|--777777--777777--777777--7777777--777777--777777--777777--7777777--|
A|--777777--777777--777777--5555555--777777--777777--777777--5555555--|
E|--555555--555555--555555-----------555555--555555--555555-----------|

e|--------------------------------------------------------------------|
B|--------------------------------------------------------------------|
G|--666666--777777--999999--7777777--666666--777777--999999--7777777--|
D|--777777--777777--777777--7777777--777777--777777--777777--7777777--|
A|--777777--777777--777777--5555555--777777--777777--777777--5555555--|
E|--555555--555555--555555-----------555555--555555--555555-----------|

"Outro"-
Yeah it's way to easy to fake this smile,
Lead you on.
Well maybe I'm wrong,
But everyone gets borerd once in a while.
e|----------------------------------------------------------|
B|----------------------------------------------------------|
G|------------77777777------------77777777--6666--4444------|
D|--22222222--xxxxxxxx--22222222--xxxxxxxx--xxxx--xxxx--7---|
A|--22222222--55555555--22222222--55555555--4444--2222--7---|
E|--00000000------------00000000------------------------5---|
Comments