Alkaline Trio - Another Innocent Girl Live Chords & Tabs

 

Another Innocent Girl Live Chords & Tabs

Alkaline Trio Chords & Tabs

Version: 1 Type: Tab 0 ratings
1 star 2 stars 3 stars 4 stars 5 stars
comments

Another Innocent Girl Live Tab

   
Im 100% sure this is right

-----------------------------------------------------------------------------| 
B|-------------------------during the second time do this--------------------|x2 
G|--------------7----------at the end------------7----6----4----2-hold-------|      
D|-14-x8--14-x8-7-x15----------------------------5-x6-4-x3-2-x3-2-last-------|a 
A|-12-----11----5-----------------------------------------------0--note------| 
E|---------------------------------------------------------------------------|

e|---------------------------------------| 
B|---------------------------------------| 
G|-----9-----9----9h11-------------------| 
D|--11----11---11------------------------|b 
A|---------------------------------------| 
E|---------------------------------------|

e|---------------------------------------| 
B|---------------------------------------| 
G|----9-----9----7642--------------------| 
D|-11---11----11-------------------------|b 
A|---------------------------------------| 
E|---------------------------------------|


e|---------------------------------------| 
B|---------------------------------------| 
G|---------------------------------------| 
D|-4-------------------------------------| 
A|-4-x8---2-x8---------------------------|c 
E|-2------0------------------------------|
  pm      pm

[ Tab from: http://www.guitartabs.cc/tabs/a/alkaline_trio/another_innocent_girl_live_tab.html ]
e|---------------------------------------| 
B|---------------------------------------| 
G|-4---x8--7---------------7-------------|c 
D|-4-------7-x8-4----------7-------------| 
A|-2-------5----4-----2-x8-5-x15---------| 
E|--------------2-x8--0------------------|

e|------------------------------------------------------------------------| 
B|------------------------------------------------------------------------| 
G|---------------------------------------------4-x3--6-----7--------------| 
D|---------------------------------------------2-----4-x3--5-x3-----------|then go to 2nd chorus 
A|-during 2nd and 3rd time of course do this------------------------------| 
E|------------------------------------------------------------------------|
   
e|---------------------------------------| d
B|---------------------------------------| repeat a couple times
G|--9-----6-----7------------------------| 
D|--7-x8--7-x8--7-x15--------------------| when we get home...
A|--------------5------------------------| 
E|---------------------------------------|

e|-----------------------------------------------------------|e 
B|-----------------------------------------------------------| 
G|-------7------------7-----6----4------6---4--2-------------| outro
D|-------7x15--9------7-x15-6----4------6---4--2-------------| 
A|-2-----5-----9-x15--5-----4-x3-2-x3---4---2--0-------------| 
E|-0-x15-------7---------------------------------------------|
heres the order
a
b
c
a
b
c
d
a
b
c
d
e
Comments