Alkaline Trio - All On Black Chords & Tabs

 

All On Black Chords & Tabs

Alkaline Trio Chords & Tabs

Version: 4 Type: Tab 0 ratings
1 star 2 stars 3 stars 4 stars 5 stars
comments

All On Black Tab

All On Black by Alkaline Trio-----------Tabbed By Luke Todd    *= Palm Mute
 
   Riff 1                                          x2
|-------------------------------------------------------------|
|-------------------------------------------------------------|
|--9-9-9-7-7-7-5-5-7-5-5-2-2-0-5-5-5-5-5-5-5-5-5-5-5-5-5-5-5-5|
|--7-7-7-7-7-7-5-5-5-5-5-0-0-0-3-3-3-3-3-3-3-3-3-3-3-3-3-3-3-3|
|-------------------------------------------------------------|
|-------------------------------------------------------------|


 Verse 1           x2
|-----------------------|
|-----------------------|
|--9----------9---------|
|--7----10----7----10-12|
|--0-----8----0-----8-10|
|-----------------------|

-----------------
 REPEAT RIFF 1 x2
-----------------

Verse 2                                                     x2
|-------------------------------------------------------------------|
|-------------------------------------------------------------------|
|--9-9-9-9-9-9-9-9-9-9-9-9-9-9-9-9----------------------------------|
|--7-7-7-7-7-7-7-7-7-7-7-7-7-7-7-7-10101010101010101010101010101010-|
|--0-0-0-0-0-0-0-0-0-0-0-0-0-0-0-0--8-8-8-8-8-8-8-8-8-8-8-8-8-8-8-8-|
|-------------------------------------------------------------------|
   * * * * * * * * * * * * * * * *  * * * * * * * * * * * * * * * *

|-------------------------------------------------------------------|
|-------------------------------------------------------------------|
|--9-9-9-9-9-9-9-9-9-9-9-9-9-9-9-9----------------------------------|
|--7-7-7-7-7-7-7-7-7-7-7-7-7-7-7-7-1010101010101010-1212121212121212|
|--0-0-0-0-0-0-0-0-0-0-0-0-0-0-0-0--8-8-8-8-8-8-8-8-1010101010101010|
|-------------------------------------------------------------------|
   * * * * * * * * * * * * * * * *  * * * * * * * *  * * * * * * * *



|----------------------------------|
|----------------------------------|
|----------------------------------|
|--3----5----3----5-5-5-5-5-5-5-5-5|
|--3----5----3----5-5-5-5-5-5-5-5-5|
|--1----3----1----3-3-3-3-3-3-3-3-3|

[ Tab from: http://www.guitartabs.cc/tabs/a/alkaline_trio/all_on_black_tab_ver_4.html ]
Chorus                                        x4
|------------------------------------------------------------------|
|------------------------------------------------------------------|
|--12121212121212121010101010101010--------------------------------|
|--1010101010101010101010101010101010101010101010101212121212121212|
|-----------------------------------8-8-8-8-8-8-8-81010101010101010|
|------------------------------------------------------------------|

----------------
REPEAT RIFF 1 x2
----------------

-----------------
REPEAT VERSE 1 x2
-----------------


|----------------------------------|
|----------------------------------|
|----------------------------------|
|--3----5----3----5-5-5-5-5-5-5-5-5|
|--3----5----3----5-5-5-5-5-5-5-5-5|
|--1----3----1----3-3-3-3-3-3-3-3-3|

-------------
REPEAT CHORUS
-------------


|----------------------------------|
|----------------------------------|
|----------------------------------|
|--12121212121212121212121212121212|
|--10101010101010101010101010101010|
|----------------------------------|
    * * * * * * * * * * * *

Bridge
|-----------------------------------------------------------------|
|-----------------------------------------------------------------|
|-----------------------------------------------------------------|
|--5-5-5-5-5-5-5-5-5-5-5-5-5-5-5-5--------------------------------|
|--3-3-3-3-3-3-3-3-3-3-3-3-3-3-3-3-3-3-3-3-3-3-3-3-3-3-3-3-3-3-3-3|
|----------------------------------1-1-1-1-1-1-1-1-1-1-1-1-1-1-1-1|
   * * * * * * * * * * * * * * * * * * * * * * * * * * * * * * * * 

|-----------------------------------------------------------------|
|-----------------------------------------------------------------|
|-----------------------------------------------------------------| x2
|-----------------------------------------------------------------| 
|--7-7-7-7-7-7-7-7-7-7-7-7-7-7-7-7-5-5-5-5-5-5-5-5-3-3-3-3-3-3-3-3|
|--5-5-5-5-5-5-5-5-5-5-5-5-5-5-5-5-3-3-3-3-3-3-3-3-1-1-1-1-1-1-1-1|
   * * * * * * * * * * * * * * * * * * * * * * * * * * * * * * * *

                       
|------------------------------|
|------------------------------|
|--121212101010-9-91010-9-91010| x6
|--1010101010101010101010101010|
|------------------------------|
|------------------------------|


|-------------------------------|
|-------------------------------|
|--9-9-9-7-7-7-5-5-7-5-5-2-2-0-5|
|--7-7-7-7-7-7-5-5-5-5-5-0-0-0-3|
|-------------------------------|
|-------------------------------|
Comments