Alkaline Trio - All On Black Chords & Tabs

 

All On Black Chords & Tabs

Alkaline Trio Chords & Tabs

Version: 3 Type: Tab 0 ratings
1 star 2 stars 3 stars 4 stars 5 stars
comments

All On Black Tab

by rocket dog


.= palm mute

E-------------------------------------------------------  x2
B-------------------------------------------------------
G--9-9-9-7-7-7-5-5-5-4-4-4-2-2-0-5-5-5-5-5-5-5-5-5-5-5-5
D--7-7-7-7-7-7-7-7-7-5-5-5-0-0-0-3-3-3-3-3-3-3-3-3-3-3-3
A-------------------------------------------------------
E-------------------------------------------------------


E-------------------------------------------------------  x2
B-------------------------------------------------------
G--9--------9-------------------------------------------
D--7---10---7---10---12---------------------------------
A-------8--------8---10---------------------------------
E-------------------------------------------------------


E-------------------------------------------------------  x2
B-------------------------------------------------------
G--9-9-9-7-7-7-5-5-5-4-4-4-2-2-0-5-5-5-5-5-5-5-5-5-5-5-5
D--7-7-7-7-7-7-7-7-7-5-5-5-0-0-0-3-3-3-3-3-3-3-3-3-3-3-3
A-------------------------------------------------------
E-------------------------------------------------------


E------------------------------------------------------------------  x2 
B------------------------------------------------------------------
G--9-9-9-9-9-9-9-9-9-9-9-9-9-9-9-9---------------------------------
D--7-7-7-7-7-7-7-7-7-7-7-7-7-7-7-7-10101010101010101010101010101010
A-----------------------------------8-8-8-8-8-8-8-8-8-8-8-8-8-8-8-8
E------------------------------------------------------------------
   ...............................  ...............................
                                                                  
                                                                    
E-------------------------                                           
B-------------------------                                          
G-------------------------
D--12-12-12-12-12-12-12-12
A--10-10-10-10-10-10-10-10
E-------------------------
   .......................


E--------------------------------------
B--------------------------------------
G--------------------------------------
D--------------------------------------
A--3----5----3----5-5-5-5-5-5-5-5------
E--1----3----1----3-3-3-3-3-3-3-3------

[ Tab from: http://www.guitartabs.cc/tabs/a/alkaline_trio/all_on_black_tab_ver_3.html ]
E--------------------------------------------------------------  x4
B--------------------------------------------------------------
G--121212121212121212121010-9-9--------------------------------
D--101010101010101010101010101010101010101010101212121212121212
A------------------------------12121212121212121010101010101010
E--------------------------------------------------------------


E-------------------------------------------------------  x2
B-------------------------------------------------------
G--9-9-9-7-7-7-5-5-5-4-4-4-2-2-0-5-5-5-5-5-5-5-5-5-5-5-5
D--7-7-7-7-7-7-7-7-7-5-5-5-0-0-0-3-3-3-3-3-3-3-3-3-3-3-3
A-------------------------------------------------------
E-------------------------------------------------------


E-------------------------------------------------------  x2
B-------------------------------------------------------
G--9--------9-------------------------------------------
D--7---10---7---10---12---------------------------------
A-------8--------8---10---------------------------------
E-------------------------------------------------------


E--------------------------------------
B--------------------------------------
G--------------------------------------
D--------------------------------------
A--3----5----3----5-5-5-5-5-5-5-5------
E--1----3----1----3-3-3-3-3-3-3-3------


E--------------------------------------------------------------  x4
B--------------------------------------------------------------
G--121212121212121212121010-9-9--------------------------------
D--101010101010101010101010101010101010101010101212121212121212
A------------------------------12121212121212121010101010101010
E--------------------------------------------------------------



E------------------------------------------------------------------  x2
B------------------------------------------------------------------
G------------------------------------------------------------------
D--5555555555555555------------------------------------------------
A--3333333333333333333333333333333377777777777777775555555533333333
E------------------111111111111111155555555555555553333333311111111
---................................................................

E-------------------------------------------------  x6
B-------------------------------------------------
G--12-12-12-10-10-10--9--9--9-10-10-10--9--9-10-10
D--10-10-10-10-10-10-10-10-10-10-10-10-10-10-10-10
A-------------------------------------------------
E-------------------------------------------------


E---------------------------------  
B---------------------------------
G--9-9-9-7-7-7-5-5-5-4-4-4-2-2-0--
D--7-7-7-7-7-7-7-7-7-5-5-5-0-0-0--
A--------------------------------3~
E--------------------------------1~

End.

I'm pretty sure this is right.
Comments