Alkaline Trio - All On Black Chords & Tabs

 

All On Black Chords & Tabs

Alkaline Trio Chords & Tabs

Version: 2 Type: Tab 0 ratings
1 star 2 stars 3 stars 4 stars 5 stars
comments

All On Black Tab

-------------------------------------------------------------------------------
			     All On Black - Alkaline Trio
-------------------------------------------------------------------------------

Tabbed by: Ryan 
Email:(Atticus_1984@hotmail.com)
Alkaline Trio
All On Black from the album Good Mourning
Tuning: EADGBe
| /  slide up
| \  slide down (pretty sure u all knew that anyway, but just incase...)

One of the best songs on the album i think and i'm pretty damn sure this is the
correct way to play it.

Intro
e|---------------------------------------------------------------------------|
B|---------------------------------------------------------------------------|
G|--999777555444220-5555555555555555-----------------------------------------|
D|--777777777555000-3333333333333333-----------------------------------------|
A|---------------------------------------------------------------------------|
E|---------------------------------------------------------------------------|

Verse 1 
e|---------------------------------------------------------------------------|
B|---------------------------------------------------------------------------|
G|---------------------------------------------------------------------------|
D|9~---9~---9~---9-11~-------------------------------------------------------|
A|7~---9~---7~---9-11~-------------------------------------------------------|
E|-----7~--------7- 9~-------------------------------------------------------|

Verse 2 (Palm-muted except last chord second time round)
e|---------------------------------------------------------------------------|
B|---------------------------------------------------------------------------|
G|---------------------------------------------------------------------------|
D|999999999999999999999999999999999999999999999999999999991111111111111111---|
A|777777777777777799999999999999997777777777777777999999991111111111111111---|
E|----------------7777777777777777----------------77777777 9 9 9 9 9 9 9 9---|
[ Tab from: http://www.guitartabs.cc/tabs/a/alkaline_trio/all_on_black_tab_ver_2.html ]
Pre-Chorus
e|---------------------------------------------------------------------------|
B|---------------------------------------------------------------------------|
G|---------------------------------------------------------------------------|
D|3~-3/5~-5\3~-3/5-----------------------------------------------------------|
A|3~-3/5~-5\3~-3/5-----------------------------------------------------------|
E|1~-1/3~-3\1~-1/3-----------------------------------------------------------|

Chorus
e|---------------------------------------------------------------------------|
B|---------------------------------------------------------------------------|
G|121212121212121210101010 9 9 9 910101010101010101212121212121212-----------|
D|1010101010101010101010101010101010101010101010101212121212121212-----------|
A|-0 0 0 0 0 0 0 0 0 0 0 0 0 0 0 0 8 8 8 8 8 8 8 81010101010101010-----------|
E|---------------------------------------------------------------------------|

"One of these days...."(Palm-muted)
e|---------------------------------------------------------------------------|
B|---------------------------------------------------------------------------|
G|---------------------------------------------------------------------------|
D|55555555555555553333333333333333-------------------------------------------|
A|55555555555555553333333333333333-------------------------------------------|
E|33333333333333331111111111111111-------------------------------------------|

Outro pt1
e|---------------------------------------------------------------------------|
B|---------------------------------------------------------------------------|
G|121212101010 9 9 9101010 9 91010-------------------------------------------|
D|10101010101010101010101010101010-------------------------------------------|
A|---------------------------------------------------------------------------|
E|---------------------------------------------------------------------------|

Outro pt2
e|---------------------------------------------------------------------------|
B|---------------------------------------------------------------------------|
G|--999777555444220-5~-------------------------------------------------------|
D|--777777777555000-3~-------------------------------------------------------|
A|---------------------------------------------------------------------------|
E|---------------------------------------------------------------------------|

| /  slide up
| \  slide down

That's it, sure u can work out order yourself and realise when to stop palm
muting and stuff and remember.....putting bogeys under ur foreskin is jst plain
sick.........Thank you.
===============================================================================
Comments