Alkaline Trio - All On Black Chords & Tabs

 

All On Black Chords & Tabs

Alkaline Trio Chords & Tabs

Version: 1 Type: Tab 0 ratings
1 star 2 stars 3 stars 4 stars 5 stars
comments

All On Black Tab

#5 on the new album,good mourning,this is my favorite song from the new album,have fun!


INTRO
e-------------------------------------------------------|
b-------------------------------------------------------|
g--9997775554442200----10101010101010101010101010101010-|
d----------------------10101010101010101010101010101010-| 
a-----------------------8-8-8-8-8-8-8-8-8-8-8-8-8-8-8-8-|
e-------------------------------------------------------|

VERSE 1(with piano)
e-------------------------------------------------|
b-------------------------------------------------|
g-2---------------2------------------2------------|
d-2-------3-------2-------3-----2----2----3-----2-|
a-0-------3-------0-------3-----2----0----3-----2-|
e---------1---------------1-----0---------1-----0-|
[ Tab from: http://www.guitartabs.cc/tabs/a/alkaline_trio/all_on_black_tab.html ]
VERSE 2
e-------------------------------------------------|
b-------------------------------------------------|
g-2---------------2------------------2------------| do each note multiple times
d-2-------3-------2-------3-----2----2----3-----2-| 
a-0-------3-------0-------3-----2----0----3-----2-|
e---------1---------------1-----0---------1-----0-|
p.m...............................................
VERSE 3
e-------------------------------------------------|
b-------------------------------------------------|
g-2---------------2------------------2------------|
d-2-------3-------2-------3-----2----2----3-----2-|
a-0-------3-------0-------3-----2----0----3-----2-|
e---------1---------------1-----0---------1-----0-|

PRE-CHORUS
e-------------------------------------------|
b-------------------------------------------|
g-3-----------3-----------------------------|
d-3-----2-----3------2-----3----------------|
a-1-----2-----1------2-----3----------------|
e-------0------------0-----1----------------|

CHORUS
e------------------------------------|
b------------------------------------|
g-12--------9------10----------------|
d-12(X16)--10(X8)--10----------------|
a-10-------10------10----------------|
e------------------------------------|

BRIDGE
e------------------------|
b------------------------|
g--5-------2-------------|
d--5(X16)--2(X8)--3------|
a--3-------0------3(X8)--|
e-----------------1------|
i dont have the second guitar part,but if i get it,ill tab it,good luck!

ORDER
intro-x2
verse1-x1
intro-x2
verse2-x1
prechorus-x1
chorus-x4
intro-x2
verse3-x1
prechorus-x1
chorus-x4
bridge-x3
intro-x1
Comments