Alison Krauss - When You Say Nothing At All Chords & Tabs

 

When You Say Nothing At All Chords & Tabs

Alison Krauss Chords & Tabs

Version: 3 Type: Tab 0 ratings
1 star 2 stars 3 stars 4 stars 5 stars
comments

When You Say Nothing At All Tab

   
  D      A   G        A
e|--5--5-5-5-5/7-5----------|
B|---7------------8-7--5-5--|
G|---------------------6-6--|
D|--------------------------|
A|--------------------------|
E|--------------------------|

    D        A    G          A      D     A      G
e|-----0h2-2-0----3/5-3-2-0h2-0-0--0h2-0-0h2-0h2-0----|
B|----3---------------------------3-----3---3-----3---|
G|---2-----------2----------------------------------2-|
D|--0-------------------------------------------------|
A|----------------------------------------------------|
E|----------------------------------------------------|
[ Tab from: http://www.guitartabs.cc/tabs/a/alison_krauss/when_you_say_nothing_at_all_tab_ver_3.html ]
     G           A                 G               A                 D
e|--------------------------------------10-10h12-10--14\12-10/12-----10-|
B|---3--5--5/7-7-5--3/5-2--10-10---10h12------------------------10/12---|
G|---4--6--6/7-7-6--4/6-2---9--9----------------------------------------|
D|----------------------------------------------------------------------|
A|----------------------------------------------------------------------|
E|----------------------------------------------------------------------|

D                  A
The smile on your face....

G-A-.................There's A

e|--0---0---0---------------3------------------|
B|--3---3---3----2----------0------------------|
G|--2---2---2----2----------0------------------|
D|--0---0---0----2----------0------------------|
A|---------------0----------2------------------|
E|--------------------------3------------------|
  truth in your eyes saying you never live me.,


e|----3/5-0h2-0------------------------------------------------|
B|---3----------3-------3------------------------------0----2--|
G|--2-------------2-0--2-2---2-----0----0----2---2----0----2---|
D|--------------------4-----2-2---0-0--0-0--2-2-2-2--0----2----|
A|-------------------------0---------------0---0---------0-----|
E|-------------------------------3----3-------------3----------|

G               A                          D
you say it best,, when you say nothing at all



thats oll..cnxa na medyo kulang,,inaantok na kasi ako tsaka 1st time ko gumawa ng tab..
sana magustuhan nyo..
Comments