Alison Krauss - When You Say Nothing At All Chords & Tabs

 

When You Say Nothing At All Chords & Tabs

Alison Krauss Chords & Tabs

Version: 2 Type: Tab 0 ratings
1 star 2 stars 3 stars 4 stars 5 stars
comments

When You Say Nothing At All Tab

(Intro) -------0-----------------------------------|
        -----3--------3--------3------2h3----------|
        ---2--------2--------2------2--------------|
        -0--------0--------0------0----------------|
        --------0----------------0-----------------|
        ----------------3--------------------------|
[ Tab from: http://www.guitartabs.cc/tabs/a/alison_krauss/when_you_say_nothing_at_all_tab_ver_2.html ]
        -------0-----------------------------------|
        -----3----------3-------3-------2h3--------|
        ---2----------2-------2-------2------------|
        -0----------0-------0-------0--------------|
        ----------0---------------0----------------|
        ------------------3------------------------|
Repeat for rest of song.

That is the real version of "When You Say Nothing At All" By: Alison Krauss!
Listen to song for timing.
Comments