Alien Ant Farm - Wish Chords & Tabs

 

Wish Chords & Tabs

Alien Ant Farm Chords & Tabs

Version: 3 Type: Tab 0 ratings
1 star 2 stars 3 stars 4 stars 5 stars
comments

Wish Tab

   
-------------------------------------------------------------------------------
			     Wish - Alien Ant Farm

-------------------------------------------------------------------------------
I tabbed this cause no one on the site or any site i've been on yet has gotten it right.
 I didn't tab the exact picking pattern or the timing u can figuer it out just listen to
the CD.  I may have missed a couple of transfer chords at the end of some verses but oh
well.  I kno this is right except the intro maybe off like 1 note but i challenge anyone
to find a mistake other than that.


Tabbed by:Riot Mentality Rules!!!!
Email:
[ Tab from: http://www.guitartabs.cc/tabs/a/alien_ant_farm/wish_tab_ver_3.html ]
Tuning:Drop D
(Riff A)
e|--------------------------------------------------------------------------
B|--------------------------------------------------------------------------
G|--------------------------------------------------------------------------
D|-------4--------4---------------------------------------------------------
A|----4-------4-----------5------4---7-------2------------------------------
E|-4-------4-----------------5------------4---------------------------------
(Riff b)just listen to the cd to follow the picking patterns
e|--------------------------------------------------------------------------
B|--------------------------------repeat-x2---------------------------------
G|-------------------------------------------------12>----------------------
D|-4>-----------0>----------2>----------------------------------------------
A|-4>-----------0>----------2>---------------------10>----------------------
E|-4>-----------0>----------2>----------------------------------------------
(Riff c)Don't be...
e|--------------------------------------------------------------------------
B|--------------------------------------------------------------------------
G|--------------------------------------------------------------------------
D|---4>--------0>--------7-7-5-5----4>---------5>---------7-7-5-5-----------
A|---4>--------0>--------7-7-5-5----4>---------5>---------7-7-5-5-----------
E|---4>--------0>--------7-7-5-5----4>---------5>---------7-7-5-5------
(Riff d)This is a little variation he does right before the next verse
e|--------------------------------------------------------------------------
B|--------------------------------------------------------------------------
G|--------------------------------------------------------------------------
D|--4-4-4--0--0--5-5-5--0--0--7-7-5-5---------------------------------------
A|--4-4-4--0--0--5-5-5--0--0--7-7-5-5---------------------------------------
E|--4-4-4--0--0--5-5-5--0--0--7-7-5-5---------------------------------------
(Riff e)Chimes used to break my wish
e|--------------------------------------------------------------------------
B|--------------------------------------------------------------------------
G|--------------------------------------------------------------------------
D|--77-4----55-0------------------------------------------------------------
A|--77-4----55-0------------------------------------------------------------
E|--77-4----55-0------------------------------------------------------------
(Riff f)Pain won't you bring him back...
e|--------------------------------------------------------------------------
B|--------------------------------------------------------------------------
G|--------------------------------------------------------------------------
D|---7\-5--7\-5--0----------------------------------------------------------
A|---7\-5--7\-5--0----------------------------------------------------------
E|---7\-5--7\-5--0----------------------------------------------------------


Order

RiffA
RiffB
RiffA
RiffB
RiffA
RiffC
RiffD
RiffF
RiffC
RiffF
Comments