Alien Ant Farm - Wish Chords & Tabs

 

Wish Chords & Tabs

Alien Ant Farm Chords & Tabs

Version: 1 Type: Tab 1 rating
1 star 2 stars 3 stars 4 stars 5 stars
comments

Wish Tab

                               WISH - Alien Ant Farm

By: Becky beck_e_b@greenday.ws

Standard Tuning

Intro:
------2-------2------------------
------2-------2------------------
---------------------------------
-4-4-----4-4------5------4-------
-4-4-----4-4----------3------2---
-2-2-----2-2--------3------2-----

Verse 1:
------------------------------------------------------------------------------
------------------------------------------------------------------------------
------------------------------------------------------------------------------
-4-4-4-4-4-4-4-4-4-4-4-4-4-4-4-4--7-7-7-7-7-7-7-7--8-8-8-8-8-8-8-8------------
-4-4-4-4-4-4-4-4-4-4-4-4-4-4-4-4--7-7-7-7-7-7-7-7--8-8-8-8-8-8-8-8------------
-2-2-2-2-2-2-2-2-2-2-2-2-2-2-2-2--5-5-5-5-5-5-5-5--6-6-6-6-6-6-6-6------------
 .............palm.......................mute.....................

------------------------------------------------------------------------------
-----------------------------------------------------------harmonics----------
------------------------------------------------------------5-5-5-5-----------
-4-4-4-4-4-4-4-4-4-4-4-4-4-4-4-4--7-7-7-7-7-7-7-7--8-8-8-8--5-5-5-5-----------
-4-4-4-4-4-4-4-4-4-4-4-4-4-4-4-4--7-7-7-7-7-7-7-7--8-8-8-8--3-3-3-3-----------
-2-2-2-2-2-2-2-2-2-2-2-2-2-2-2-2--5-5-5-5-5-5-5-5--6-6-6-6--------------------
 ........palm.......................mute..................

------------------------------------------------------------------------------
------------------------------------------------------------------------------
------------------------------------------------------------------------------
-4-4-4-4-4-4-4-4-4-4-4-4-4-4-4-4--3-3-3-3-3-3-3-3--2-2-2-2-2-2-2-2------------
-4-4-4-4-4-4-4-4-4-4-4-4-4-4-4-4--3-3-3-3-3-3-3-3--2-2-2-2-2-2-2-2------------
-2-2-2-2-2-2-2-2-2-2-2-2-2-2-2-2--1-1-1-1-1-1-1-1--0-0-0-0-0-0-0-0------------
 .............palm.......................mute.....................

------------------------------------------------------------------------------
------------------------------------------------------------------------------
---------------------------------------------------8-8-8-8-8-8-8-8------------
-4-4-4-4-4-4-4-4-4-4-4-4-4-4-4-4--3-3-3-3-3-3-3-3--x-x-x-x-x-x-x-x------------
-4-4-4-4-4-4-4-4-4-4-4-4-4-4-4-4--3-3-3-3-3-3-3-3--6-6-6-6-6-6-6-6------------
-2-2-2-2-2-2-2-2-2-2-2-2-2-2-2-2--1-1-1-1-1-1-1-1-----------------------------
 ........palm..............mute..................                             

Pre chorus:
------2-------2------------------
----2-------2--------------------
---------------------------------
-4-------4-------5------4--------
-4-------4-----------3------2----
-2-------2---------3------2------

Verse 2:
------------------------------------------------------------------------------
------------------------------------------------------------------------------
------------------------------------------------------------------------------
-4-4-4-4-4-4-4-4-4-4-4-4-4-4-4-4--3-3-3-3-3-3-3-3--2-2-2-2-2-2-2-2------------
-4-4-4-4-4-4-4-4-4-4-4-4-4-4-4-4--3-3-3-3-3-3-3-3--2-2-2-2-2-2-2-2------------
-2-2-2-2-2-2-2-2-2-2-2-2-2-2-2-2--1-1-1-1-1-1-1-1--0-0-0-0-0-0-0-0------------
 .............palm.......................mute.....................           

------------------------------------------------------------------------------
-----------------------------------------------------------harmonics----------
------------------------------------------------------------5-5-5-5-----------
-4-4-4-4-4-4-4-4-4-4-4-4-4-4-4-4--3-3-3-3-3-3-3-3--2-2-2-2--5-5-5-5-----------
-4-4-4-4-4-4-4-4-4-4-4-4-4-4-4-4--3-3-3-3-3-3-3-3--2-2-2-2--3-3-3-3-----------
-2-2-2-2-2-2-2-2-2-2-2-2-2-2-2-2--1-1-1-1-1-1-1-1--0-0-0-0--------------------
 ........palm.......................mute..................            
[ Tab from: http://www.guitartabs.cc/tabs/a/alien_ant_farm/wish_tab.html ]
------------------------------------------------------------------------------
------------------------------------------------------------------------------
------------------------------------------------------------------------------
-4-4-4-4-4-4-4-4-4-4-4-4-4-4-4-4--3-3-3-3-3-3-3-3--2-2-2-2-2-2-2-2------------
-4-4-4-4-4-4-4-4-4-4-4-4-4-4-4-4--3-3-3-3-3-3-3-3--2-2-2-2-2-2-2-2------------
-2-2-2-2-2-2-2-2-2-2-2-2-2-2-2-2--1-1-1-1-1-1-1-1--0-0-0-0-0-0-0-0------------
 .............palm.......................mute.....................

------------------------------------------------------------------------------
------------------------------------------------------------------------------
---------------------------------------------------8-8-8-8-8-8-8-8------------
-4-4-4-4-4-4-4-4-4-4-4-4-4-4-4-4--3-3-3-3-3-3-3-3--x-x-x-x-x-x-x-x------------
-4-4-4-4-4-4-4-4-4-4-4-4-4-4-4-4--3-3-3-3-3-3-3-3--6-6-6-6-6-6-6-6------------
-2-2-2-2-2-2-2-2-2-2-2-2-2-2-2-2--1-1-1-1-1-1-1-1-----------------------------
 ........palm..............mute..................                             

Pre chorus 2:
------2-------2-------------------------
----2-------2---------------------------
-----------------------------8-8-8-8----
-4-------4-------5------4----x-x-x-x----
-4-------4-----------3-------6-6-6-6----
-2-------2---------3------2-------------
                                                                              
Chorus:
------------------------------------------------------------------------------
------------------------------------------------------------------------------
------------------------------------------------------------------------------
-4-4-4-4--2-2-2-2--7-7--5-5--4-4-4-4-4-4--2--5-5-5-5--7-7--5-5--x3------------
-4-4-4-4--2-2-2-2--7-7--5-5--4-4-4-4-4-4--2--5-5-5-5--7-7--5-5----------------
-2-2-2-2--0-0-0-0--5-5--3-3--2-2-2-2-2-2--0--3-3-3-3--5-5--3-3----------------

------------------------------------------------
------------------------------------------------
------------------------------------------------
-4-4-4-4--2-2-2-2--7-7--5-5--4--2--5--2--7--5---
-4-4-4-4--2-2-2-2--7-7--5-5--4--2--5--2--7--5---
-2-2-2-2--0-0-0-0--5-5--3-3--2--0--3--0--5--3---
                                                                              
Breakdown:
-----------------------
-----------------------
-----------------------
-6-6\5--3-3\2---------- the ninth time is not palm muted
-6-6\5--3-3\2--x9------
-4-4\3--1-1\0----------
 ..palm mute..         

----------------|------------------
----------------|------------------
----------------|------------------
-6\5--6\5--3\2--|-x7--2-2-2-2-2----
-6\5--6\5--3\2--|-----2-2-2-2-2----
-4\3--4\3--1\0--|-----0-0-0-0-0----
                   ...palm..mute... 

-----------------------------------|------------------------------------------
-----------------------------------|------------------------------------------
-----------------------------------|------------------------------------------
-----------------------------------|-x2---------------------------------------
-----------------------------------|------------------------------------------
-2-2-2-2-2-2--0--3-3-3-3--5-5--3-3-|-----2-2-2-2-2-2--0-0-0-0--5-5--3-3-------
 .....palm........mute............       ........palm........mute......       

------------------------------------------------
------------------------------------------------
------------------------------------------------
------------------------------------------------
------------------------------------------------
-2-2-2-2--0-0-0-0--3-3-3-3--0-0-0-0--5-5--3-3---
 .........palm................mute...........   

Chorus 2:
------------------------------------------------------------------------------
------------------------------------------------------------------------------
------------------------------------------------------------------------------
-4-4-4-4--2-2-2-2--7-7--5-5--4-4-4-4-4-4--2--5-5-5-5--7-7--5-5--x3------------
-4-4-4-4--2-2-2-2--7-7--5-5--4-4-4-4-4-4--2--5-5-5-5--7-7--5-5----------------
-2-2-2-2--0-0-0-0--5-5--3-3--2-2-2-2-2-2--0--3-3-3-3--5-5--3-3----------------

------------------------------------------------
------------------------------------------------
------------------------------------------------
-4-4-4-4--2-2-2-2--7-7--5-5--4--2--5--2--7--5---
-4-4-4-4--2-2-2-2--7-7--5-5--4--2--5--2--7--5---
-2-2-2-2--0-0-0-0--5-5--3-3--2--0--3--0--5--3---

Outro:
----------------------
----------------------
----------------------
-6-6\5--3-3\2---------
-6-6\5--3-3\2--x8-----
-4-4\3--1-1\0---------
 ..palm mute..


Comments