Alien Ant Farm - Whisper Chords & Tabs

 

Whisper Chords & Tabs

Alien Ant Farm Chords & Tabs

Version: 1 Type: Bass Tab 0 ratings
1 star 2 stars 3 stars 4 stars 5 stars
comments

Whisper Bass Tab

===========================================================
	Artist: Alien Ant Farm
	  Song: Whisper
	 Album: ANTology
===========================================================

Tabbed: TheMutts @ Ultimate-Guitar.com
Email: st_jimmy_themutts@yahoo.com

Tuning: Standard

(nothing in the intro part)

-----------------
Verse
-----------------

|---------------------------|
|---------------------------|
|--------------0-0----------|repeat as needed
|-2-2-0-0-0-0------0-0-0-0--|
[ Tab from: http://www.guitartabs.cc/tabs/a/alien_ant_farm/whisper_btab.html ]
-----------------
Prechorus
-----------------
"I'll introduce you to..."
|-----------------------|
|-----------------------|
|------------2-0--------|repeat as needed
|-5-2-0-0-2------2-0-0--|

-----------------
Chorus
-----------------
"I am so confused"
|---------------------|
|---------------------|
|-2-2-----------------|repeat as needed
|------5-5--2-2--0-0--|


-----------------
Bridge
-----------------
"It suits me just fine.."
|-------------------|
|-------------------|
|-------------------|repeat as needed
|-2-2-2-2--0-0-0-0--|



Thats it. It's a simple song bass-wise. Have you seen the bass
guitar the dude plays? That thing is sick!!
Comments