Alien Ant Farm - Universe Chords & Tabs

 

Universe Chords & Tabs

Alien Ant Farm Chords & Tabs

Version: 2 Type: Tab 0 ratings
1 star 2 stars 3 stars 4 stars 5 stars
comments

Universe Tab

   
Song: Universe
Band name: alien ant farm\
tabbed by: fretboard88
(Drop D)
this song is a fairly easy song, except for the strumming riff

Main Riff:
e|-----------------------------------------------------------------------|
B|-----------------------------------------------------------------------|
G|-----------------------------------------------------------------------|
D|-3-3-3-3-3-3-3-3--3-2-2-2-2-2-2-2--2-2-2-2-2-2-2-2--6-6-6-6-6-6-6-6----|
A|-3-3-3-3-3-3-3-3--3-2-2-2-2-2-2-2--2-2-2-2-2-2-2-2--6-6-6-6-6-6-6-6----|
D|-3-3-3-3-3-3-3-3--3-2-2-2-2-2-2-2--2-2-2-2-2-2-2-2--6-6-6-6-6-6-6-6----|

2nd Guitar solo
e|---------------------------|
B|-----1-----2-----2-----3---|
G|---2-----1-----1-----1-----|
D|-3-----2-----2-----2-------|
A|---------------------------|
D|---------------------------|

Chorus
e|------------------------------------------------|
B|------------------------------------------------|
G|------------------------------------------------|
D|-3-15-14-9--2-2-2-2-2-2-2-4--6-6-6-6-6-7-6-7----|
A|-3-15-14-9--2-2-2-2-2-2-2-4--6-6-6-6-6-7-6-7----|
D|-3-15-14-9--2-2-2-2-2-2-2-4--6-6-6-6-6-7-6-7----|

Pre-chorus
e|---------------------------------------------------------------------|
B|---------------------------------------------------------------------|
G|---------------------------------------------------------------------|
D|-----3-3-----3-3----3-3-----3-3--2-2-2-2-2-2-2-2--6-6-6-6-6-7-6-7----|
A|---------------------------------2-2-2-2-2-2-2-2--6-6-6-6-6-7-6-7----|
D|-3-3-----3-3-----3-3----3-3------2-2-2-2-2-2-2-2--6-6-6-6-6-7-6-7----|

Riff 1
e|-------------------------------------------------|
B|-------------------------------------------------|
G|-------------------------------------------------|
D|-3-3-3-3-3-3-3-3--5-5-5-5-5-5-5-5--7-9-11-9-7----|
A|-3-3-3-3-3-3-3-3--5-5-5-5-5-5-5-5--7-9-11-9-7----|
D|-3-3-3-3-3-3-3-3--5-5-5-5-5-5-5-5--7-9-11-9-7----|

Riff 2
e|-----------------------------------------------------|
B|-----------------------------------------------------|
G|-----------------------------------------------------|
D|-3-3-3-3-3-3-3-3--5-5-5-5-5-5-5-5--7-7-7--7-7-7-5----|
A|-3-3-3-3-3-3-3-3--5-5-5-5-5-5-5-5--7-7-7--7-7-7-5----|
D|-3-3-3-3-3-3-3-3--5-5-5-5-5-5-5-5--7-7-7--7-7-7-5----|
[ Tab from: http://www.guitartabs.cc/tabs/a/alien_ant_farm/universe_tab_ver_2.html ]
Riff 3
e|------------------------------------|
B|------------------------------------|
G|------------------------------------|
D|-3-3-3-3-3-3-3-3--5-5-5-5-x-x-x-x---|
A|-3-3-3-3-3-3-3-3--5-5-5-5-x-x-x-x---|
D|-3-3-3-3-3-3-3-3--5-5-5-5-x-x-x-x---|

Strumming Riff (dist)
e|-1-1-1-1-1-1-1-1-1-1-1-1-0-0-0-0---------------------------------------|
B|----------------------------------3-3-3-3-3-3-3-3-3-3-3-3-3-3-3-3-1----|
G|-----------------------------------------------------------------------|
D|-----------------------------------------------------------------------|
A|-----------------------------------------------------------------------|
D|-----------------------------------------------------------------------|

Strumming Riff (dist) (cont.)
e|---------0-0-0-0-0-0-0-0-0-0-0-0--0-0-0-0-0-0-0-0------------|
B|-2-2-2-2------------------------------------------0-1-0-1----|
G|-------------------------------------------------------------|
D|-------------------------------------------------------------|
A|-------------------------------------------------------------|
D|-------------------------------------------------------------|
Riff 4

e|--------------------------------------------------------------------|
B|--------------------------------------------------------------------|
G|--------------------------------------------------------------------|
D|-3-3-3-3-3-3-3-3--3-3-3-3-3-3-3-3--2-2-2-2-2-2-2-2--2-2-2-2-2-2-2-2-|
A|-3-3-3-3-3-3-3-3--3-3-3-3-3-3-3-3--2-2-2-2-2-2-2-2--2-2-2-2-2-2-2-2-|
D|-3-3-3-3-3-3-3-3--3-3-3-3-3-3-3-3--2-2-2-2-2-2-2-2--2-2-2-2-2-2-2-2-|

Outro
e|---------------------------|
B|---------------------------|
G|---------------------------|
D|-3-15-14-9--2--------------|
A|-3-15-14-9--2-(fade away)--|
D|-3-15-14-9--2--------------|

| x  Mute note

Main riff x4 (2-3 time, guitar 2 solo plays)
Chorus x2
main riff x4 (pre-verse 1-2, verse 3-4)
Pre-chorus x2
chorus x2
main riff x4 (pre-verse 1-2, verse 3-4)
pre-chorus x2
chorus x4 (slow down 4th time)
riff 1x2
riff 2
riff 3
main riff
guitar 2 solo (-last measure, last measure all messed up)
strumming riff x2
riff 4 x2
chorus x2
outro

that is basically it. this is my first tab so dont get
too mad if its wrong. there are lots of sound effects
and i didnt add them. i know that a guitarist plays 
the g string by accident in the end and i didnt add that. 
the main riff's last measure might be played like the last 
measure of the chorus, either way works. i put the
strumming riff in 2 parts to save space, its all the
same

===============================================================================
Comments