Alien Ant Farm - These Days Chords & Tabs

 

These Days Chords & Tabs

Alien Ant Farm Chords & Tabs

Version: 2 Type: Tab 0 ratings
1 star 2 stars 3 stars 4 stars 5 stars
comments

These Days Tab

-----------------------------------------------------------------------------
                       These Days - Alien Ant Farm
-----------------------------------------------------------------------------

Artist: Alien Ant Farm
Song: These Days
Albulm: TruAnt
Tabbed by: Zero is Great Man
E-mail: Benzero@verison.net
Tunning: EADGBe

Intro/Fill: "Ah-ah, Ah-ah ah.
e|-----------------------------------------|
B|-----------------------------------------|
G|-----------------------------------------|
D|-9-9-9-9--9-9-9-9--4-4-4-4--4-4-4-4--2-2-|
A|-9-9-9-9--9-9-9-9--4-4-4-4--4-4-4-4--2-2-|
E|-7-7-7-7--7-7-7-7--2-2-2-2--2-2-2-2--0-0-|

Intro Fill: [Phaser]
e|-------------------| |---------------------|
B|-------------------| |---------------------|
G|-------------------| |---------------------|
D|-9~-\4~--/9~-7~-4~-| |-9~-\4~--/9~-10~-12~-|
A|-------------------| |---------------------|
E|-------------------| |---------------------|

Verse: "Making all these waves and..."
e|---------------------------------------------|
B|---------------------------------------------|
G|---------------------------------------------|
D|-4-4----4--4-4---4--4----4-4---4-4---4-4---4-|
A|-4-4----4--4-4---4--4----4-4---4-4---4-4---4-|
E|-2-2-0--2--2-2-0-2--2-0--2-2-0-2-2-0-2-2-0-2-|

Verse Part 2: " I said big of you"
e|-----------------------------------------------|
B|-----------------------------------------------|
G|-7-7----7---7----7---7----4---4---4---4--------|
D|-7-7----7---7----7---7----4---4---4---4----4-4-|
A|-5-5-0--5-0-5-0--5-0-5-0--2-0-2-0-2-0-2-0--4-4-|
E|-------------------------------------------2-2-|

Verse end/Pre-chorus: "Cause breaking through seems..."
e|-------------------------------------|
B|-------------------------------------|
G|-7-7----7--7-7---7--4-4-4-4--7-7-7-7-|
D|-7-7----7--7-7---7--4-4-4-4--7-7-7-7-|
A|-5-5-0--5--5-5-0-5--2-2-2-2--5-5-5-5-|
E|-------------------------------------|
[ Tab from: http://www.guitartabs.cc/tabs/a/alien_ant_farm/these_days_tab_ver_2.html ]
Chorus: "These day's are great, there's work to do..."
e|------------------------------------------------------|
B|------------------------------------------------------|
G|------------------------------------------------------|
D|-7-7-7-7--7-7-7-7--7-7-7-7--4-4-4-4--4-4-4-4--4-4-----|
A|-7-7-7-7--7-7-7-7--7-7-7-7--4-4-4-4--4-4-4-4--4-4-----|
E|-5-5-5-5--5-5-5-5--5-5-5-5--2-2-2-2--2-2-2-2--2-2-4-4-|

Chorus: Part 2:"Would you like to work with me, I'd love to work you..."
e|-------------------------------------------------|
B|-------------------------------------------------|
G|-------------------------------------------------|
D|-3-3-3-3--3-3-3-3--3-3-3-3--7-7-7-7-7-7-7-7--3-3-|
A|-3-3-3-3--3-3-3-3--3-3-3-3--7-7-7-7-7-7-7-7--3-3-|
E|-1-1-1-1--1-1-1-1--1-1-1-1--5-5-5-5-5-5-5-5--1-1-|

Chours Fill:
e|-------------------------------------------------------------|
B|-------------------------------------------------------------|
G|-9----9----9----9----9----9----9----9----9----9----9---9-----|
D|---11---11---11---11---10---10---10---10---11---11---11---11-|
A|-------------------------------------------------------------|
E|-------------------------------------------------------------|

Outro: "I even told you..."
e|----|
B|----|
G|----|
D|-7~-|
A|-7~-|
E|-5~-|

Lyrics:

Ah-ah, ah-ah -ah.

Making all these waves and,
I remember all the days were,
I said big of you,
I hope the feelings mutual.

I'm seeing all you gave and,
Somehow I don't see maybee,
Close to what I do,
Cause breaking through seems natural.

These days are great,
There's work to do.
Would you like to work with me?
I'd love to work you.

These days are great,
And so are you.
I think it's something positive,
And negative too.

Playing all these games and,
I wonder who's to blame and,
See I think it's you,
I'm sure the feelings mutual.

We're growing colder,
It's getting older,
We should've known,
It's over....

We'll be a real team.

=============================================================================
Comments