Alien Ant Farm - Ss Recognize Chords & Tabs

 

Ss Recognize Chords & Tabs

Alien Ant Farm Chords & Tabs

Version: 2 Type: Tab 0 ratings
1 star 2 stars 3 stars 4 stars 5 stars
comments

Ss Recognize Tab

   
----------------------------------------------------------------------------
			     SS Recognize - Alien Ant Farm
----------------------------------------------------------------------------

Tabbed by: Tim
Email: hippopotamus7@cox.net

Tuning: e B G D A e

e|------------------------------|
B|------------------------------|
G|------------------------------|
D|------------------------------|  8x  (on the fourth time if you wanna put
A|------------------------------|  your amp on drive, it sounds good)
E|-------4-0-6-3-4-0-9-8--------|
[ Tab from: http://www.guitartabs.cc/tabs/a/alien_ant_farm/ss_recognize_tab_ver_2.html ]
e|--------------------------------|
B|--------------------------------|
G|--------------------------------| 2x
D|---------3--7-------------------|
A|-444--3--5--9--99-9999----------|
E|-666--5--------77-7777----------|

(take drive off now)

e|------------------------------|
B|------------------------------|
G|------------------------------|
D|------------------------------|  4x
A|------------------------------|  
E|-------4-0-6-3-4-0-9-8--------|

then the chorus kicks in. see the other version of this song for that. 

This is my first tab, so please send feedback. hippopotamus7@cox.net  

| /  slide up
| \  slide down
| h  hammer-on
| p  pull-off
| ~  vibrato
| +  harmonic
| x  Mute note



Carpe yesterday --Tim
============================================================================
Comments