Alien Ant Farm - Smooth Criminal Chords & Tabs

 

Smooth Criminal Chords & Tabs

Alien Ant Farm Chords & Tabs

Version: 7 Type: Tab 0 ratings
1 star 2 stars 3 stars 4 stars 5 stars
comments

Smooth Criminal Tab

   
############################################################################
# Smooth Criminal by Alient Ant Farm
# Send questions/comments to dan19ch@hotmail.com
# Tabbed by Dan Young Copyright 2001

(palm muted)
verse
e-------------------------------------------------
B-------------------------------------------------
G-------------------------------------------------
D------7-7-7-7-7-7-9-9---9-9-10-10---10-10-9-5--7-
A------7-7-7-7-7-7-9-9---9-9-10-10---10-10-9-5--7-
E------5-5-5-5-5-5-7-7---7-7--8--8----8--8-7-3--5-
    A5             B5        C5              G5

chorus-part1 (no p.m.) [Annie are you okay..you okay..etc]
(play this over and over with appropriate pauses...listen to the song)
e-----
B-----
G-----
D--3--
A--3--
E--1--
   F5
[ Tab from: http://www.guitartabs.cc/tabs/a/alien_ant_farm/smooth_criminal_tab_ver_7.html ]
bridge into chorus-part2
On the fourth time through the above chorus(after the third pause) play this
e------------------------------------
B------------------------------------
G------------------------------------
D---3-3-3-3-3-3-3-3-2-2-2-2-2-2-5--7-
A---3-3-3-3-3-3-3-3-2-2-2-2-2-2-5--7-
E---1-1-1-1-1-1-1-1-0-0-0-0-0-0-3--5-
    F5              E5          G5 A5

chorus part2 [Annie are you okay, Would you tell us...]
e-------------------------------------------
B-------------------------------------------
G-------------------------------------------
D---7-7-7-7-7-7-5-5---5-5-3-3---3-3-2-2-5-7-
A---7-7-7-7-7-7-5-5---5-5-3-3---3-3-2-2-5-7-
E---5-5-5-5-5-5-3-3---3-3-1-1---1-1-0-0-3-5-
    A5          G5        F5        E5

Now do chorus-part1 before starting over with verse.
g

Comments