Alien Ant Farm - Smooth Criminal Chords & Tabs

 

Smooth Criminal Chords & Tabs

Alien Ant Farm Chords & Tabs

Version: 5 Type: Tab 1 rating
1 star 2 stars 3 stars 4 stars 5 stars
comments

Smooth Criminal Tab

   
I'm using the tabs from all the other versions. this one is in drop d.
i still dont know the chords to the part where he says" you've been hit by"
etc.

this is just a rough sketch of the timing.  just listen to the song
and you'll get the rythymn down.

enjoy.
gstring(fizznated@hotmail.com)

Drop D
-----------------------------------------------------------------------
Intro/Verse-

e|--------------------------------------------
B|--------------------------------------------
G|--------------------------------------------
D|-7-7-7-7-5--5--9-9---7-7--10-10--9---5------
A|-7-7-7-7-5--5--9-9---7-7--10-10--9---5------
D|-7-7-7-7-5--5--9-9---7-7--10-10--9---5------
[ Tab from: http://www.guitartabs.cc/tabs/a/alien_ant_farm/smooth_criminal_tab_ver_5.html ]
Pre Chorus-
e|-----------------------------------------------------|
B|-----------------------------------------------------|
G|-----------------------------------------------------| (:31)
D|-3------3---3--/----5----------X---3-----------------|
A|-3------3---3--/----5----------X---3-----------------|
D|-3------3---3--/----5----------X---3-----------------|

"annie are you ok?" etc

e|-----------------------------------------------------|
B|-----------------------------------------------------|
G|-----------------------------------------------------| 
D|-3------3---3--/-----2-------/------5------/---------|
A|-3------3---3--/-----2-------/------5------/---------|
D|-3------3---3--/-----2-------/------5------/---------|

Chorus-
e|------------------------------------------|
B|------------------------------------------|
G|------------------------------------------| X 4  (:46)
D|-7-7-7-7--5-5---3-3-3-3----2-2-2-/--5-5-/7|
A|-7-7-7-7--5-5---3-3-3-3----2-2-2-/--5-5-/7|
D|-7-7-7-7--5-5---3-3-3-3----2-2-2-/--5-5-/7|

Comments