Alien Ant Farm - Smooth Criminal Chords & Tabs

 

Smooth Criminal Chords & Tabs

Alien Ant Farm Chords & Tabs

Version: 3 Type: Tab 0 ratings
1 star 2 stars 3 stars 4 stars 5 stars
comments

Smooth Criminal Tab

Alien Ant Farm-- Smooth Criminal (Michael Jackson cover)
From the Album "ANThology:
Tabbed By Adam Quigley
Tuning All strings tunned 1/2 step down and drop top string another whole step.(low to high):C# G# C# F# A# D# 

Listen to the song for timing it should be pretty easy to figure out
Main Riff:

D#--------------------------------------------------------------------------------------------------
A#--------------------------------------------------------------------------------------------------
F#--------------------------------------------------------------------------------------------------
C#--4-4---6-6-6-6----7-7-7-7---6-6-6-6---x--2-------------------------------------------------------
G#--4-4---6-6-6-6----7-7-7-7---6-6-6-6---x--2-------------------------------------------------------
C#--4-4---6-6-6-6----7-7-7-7---6-6-6-6---x--2-------------------------------------------------------

[ Tab from: http://www.guitartabs.cc/tabs/a/alien_ant_farm/smooth_criminal_tab_ver_3.html ]
D#--------------------------------------------------------------------------------------------------
A#--------------------------------------------------------------------------------------------------
F#--------------------------------------------------------------------------------------------------
C#--4-4---6-6-6-6----7-7-7-7---6-6-6-6---2--4-------------------------------------------------------
G#--4-4---6-6-6-6----7-7-7-7---6-6-6-6---2--4-------------------------------------------------------
C#--4-4---6-6-6-6----7-7-7-7---6-6-6-6---2--4-------------------------------------------------------Play 8 times

Chorus:

D#--------------------------------------------------------------------------------------------------
A#--------------------------------------------------------------------------------------------------
F#--------------------------------------------------------------------------------------------------
C#--6-6---6-6-6-6----7-7-7-7---7-7-7-7---2--4-------------------------------------------------------
G#--6-6---6-6-6-6----7-7-7-7---7-7-7-7---2--4-------------------------------------------------------
C#--6-6---6-6-6-6----7-7-7-7---7-7-7-7---2--4-------------------------------------------------------
 	
This is all I have for now.  I'm pretty sure the verse is right but the chorus may need some work.
if you have any questions or corrections E-Mail me NSideRecords@aol.com.
Comments