Alien Ant Farm - Smooth Criminal Chords & Tabs

 

Smooth Criminal Chords & Tabs

Alien Ant Farm Chords & Tabs

Version: 2 Type: Tab 0 ratings
1 star 2 stars 3 stars 4 stars 5 stars
comments

Smooth Criminal Tab

Song-Smooth Criminal	
Artist-Alien Ant Farm
Album-ANThology
*Standard Tuning*

**This Is My First Tab and it's not 100% Correct**
-----------------------------------------------------------------------
Intro/Verse-
e|-------------------------------------|
B|-------------------------------------|
G|----------------5-5-5-5--------------| X 8 (:00)
D|-7-7-7-7--9-9---5-5-5-5----5-5-5---5-|
A|-7-7-7-7--9-9---3-3-3-3----5-5-5---5-|
E|-5-5-5-5--7-7--------------3-3-3---3-|

Pre Chorus-
e|-----------------------------------------------------|
B|-----------------------------------------------------|
G|-----------------------------------------------------| (:31)
D|-3------5---3------5---3------X---3------?---?---?-?-|
A|-3------5---3------5---3------X---3------?---?---?-?-|
E|-1------3---1------3---1------X---1------?---?---?-?-|

Chorus-
e|---------------------------------------|
B|---------------------------------------|
G|----------------5-5-5-5----------------| X 4  (:46)
D|-7-7-7-7--9-9---5-5-5-5----5-5-5---5-5-|
A|-7-7-7-7--9-9---3-3-3-3----5-5-5---5-5-|
E|-5-5-5-5--7-7--------------3-3-3---3-3-|

Pre Verse-
e|---------------------------------------------------|
B|---------------------------------------------------|
G|---------------------------------------------------| (1:01)
D|-3------5---3------5---3------5---3---?---?-?---?--|
A|-3------5---3------5---3------5---3---?---?-?---?--|
E|-1------3---1------3---1------3---1---?---?-?---?--|

Verse
e|-------------------------------------|
B|-------------------------------------|
G|----------------5-5-5-5--------------| X 4  (1:16)
D|-7-7-7-7--9-9---5-5-5-5----5-5-5---5-|
A|-7-7-7-7--9-9---3-3-3-3----5-5-5---5-|
E|-5-5-5-5--7-7--------------3-3-3---3-|
[ Tab from: http://www.guitartabs.cc/tabs/a/alien_ant_farm/smooth_criminal_tab_ver_2.html ]
Pre Chorus-
e|-----------------------------------------------------|
B|-----------------------------------------------------|
G|-----------------------------------------------------| (1:31)
D|-3------5---3------5---3------X---3------?---?---?-?-|
A|-3------5---3------5---3------X---3------?---?---?-?-|
E|-1------3---1------3---1------X---1------?---?---?-?-|

Chorus-
e|---------------------------------------|
B|---------------------------------------|
G|----------------5-5-5-5----------------| X 4  (1:46)
D|-7-7-7-7--9-9---5-5-5-5----5-5-5---5-5-|
A|-7-7-7-7--9-9---3-3-3-3----5-5-5---5-5-|
E|-5-5-5-5--7-7--------------3-3-3---3-3-|

Pre Verse-
e|-----------------------------|
B|-----------------------------|
G|-----------------------------| (2:01)
D|-3------5---3---?---?-?---?--|
A|-3------5---3---?---?-?---?--|
E|-1------3---1---?---?-?---?--|

Pre Solo-
e|-------------------------------------|
B|-------------------------------------|
G|----------------5-5-5-5--------------| X 4  (2:09)
D|-7-7-7-7--9-9---5-5-5-5----5-5-5---5-|
A|-7-7-7-7--9-9---3-3-3-3----5-5-5---5-|
E|-5-5-5-5--7-7--------------3-3-3---3-|

Solo-
*I Didn't Figure That Part Out Yet*  (2:24)

Chorus-
e|---------------------------------------|
B|---------------------------------------|
G|----------------5-5-5-5----------------| X 4  (2:39)
D|-7-7-7-7--9-9---5-5-5-5----5-5-5---5-5-|
A|-7-7-7-7--9-9---3-3-3-3----5-5-5---5-5-|
E|-5-5-5-5--7-7--------------3-3-3---3-3-|

Pre Outro-
e|-------------------------|
B|-------------------------|
G|-------------------------| X 4 (2:55)
D|-3------5---3---?-?------|
A|-3------5---3---?-?------|
E|-1------3---1---?-?------|

Outro-
e|-------------------------------------|
B|-------------------------------------|
G|----------------5-5-5-5--------------| X 4 (3:09)
D|-7-7-7-7--9-9---5-5-5-5----5-5-5---3-|
A|-7-7-7-7--9-9---3-3-3-3----5-5-5---3-|
E|-5-5-5-5--7-7--------------3-3-3---1-|
Comments