Alien Ant Farm - Smooth Criminal Chords & Tabs

 

Smooth Criminal Chords & Tabs

Alien Ant Farm Chords & Tabs

Version: 13 Type: Tab 0 ratings
1 star 2 stars 3 stars 4 stars 5 stars
comments

Smooth Criminal Tab

--------------------------------------------------------------------------------
                    Alien Ant Farm-"smooth Criminal"
--------------------------------------------------------------------------------
This is the right tab trust me.
/=slide
*=let ring

by ant
Used for intro,verses.
E-----------------------------------------------
B-----------------------------------------------
G-----------------------------------------------
D-----------------------------------------------
A--7----------------------------------------7---
e--5---5-5-5-5---7-7---5-/-8-8--5-/-8-/-3---5---
[ Tab from: http://www.guitartabs.cc/tabs/a/alien_ant_farm/smooth_criminal_tab_ver_13.html ]
Annie are you ok?...
E-----------------------------------------------
B-----------------------------------------------
G-----------------------------------------------
D-----------------------------------------------
A-3*---5--3*--5---3*--5--3*---------------------
e-1*---3--1*--3---1*--3--1*---------------------

Annie are you ok? would you tell us that you ok?
E-----------------------------------------------
B-----------------------------------------------
G-----------------------------------------------
D-----------------------------------------------
A-77777--5-5------5-5--3--3---3-3---5--3--5--7--
e-55555--3-3------3-3--1--1---1-1---3--1--3--5--

solo:
E-----------------------------------------------
B-----------------------------------------------
G---5-4-2-4-0---2-0-2-2-0-2--2-2-2-x2-----------
D-------------0---------------------------------
A-----------------------------------------------
e-----------------------------------------------

You will just have to listen to the CD because some parts repeat. You will
Know when.
Comments