Alien Ant Farm - Smooth Criminal Chords & Tabs

 

Smooth Criminal Chords & Tabs

Alien Ant Farm Chords & Tabs

Version: 12 Type: Tab 0 ratings
1 star 2 stars 3 stars 4 stars 5 stars
comments

Smooth Criminal Tab

Hey my name is Travis S. and here is how the song really goes, ok!!! I play this song in D tuning because I think its easier. (DADGBE)

intro/verse
|----------------------------------------------------------|
|----------------------------------------------------------|
|----------------------------------------------------------|
|-7-7-7-7--5--7--9-9--7--9--10-10---10-10--9--5--7---------|
|-7-7-7-7--5--7--9-9--7--9--10-10---10-10--9--5--7---------|
|-7-7-7-7--5--7--9-9--7--9--10-10---10-10--9--5--7---------|

prechorus
|----------------------------------------------------------|
|----------------------------------------------------------|
|----------------------------------------------------------|
|-3-3-3-3--5--3-3-3-3--5--3-3-3-3--5--3-3-3-2-2--5--2--5-7-|
|-3-3-3-3--5--3-3-3-3--5--3-3-3-3--5--3-3-3-2-2--5--2--5-7-|
|-3-3-3-3--5--3-3-3-3--5--3-3-3-3--5--3-3-3-2-2--5--2--5-7-|

chorus: Anie u okay? wont u tell us that your okay.....
|----------------------------------------------------------|
|----------------------------------------------------------|
|----------------------------------------------------------|
|-7-7-7-7-7---5-5-5-5---3-3-3-3-3--5--2--5--7--------------|
|-7-7-7-7-7---5-5-5-5---3-3-3-3-3--5--2--5--7--------------|
|-7-7-7-7-7---5-5-5-5---3-3-3-3-3--5--2--5--7--------------|
[ Tab from: http://www.guitartabs.cc/tabs/a/alien_ant_farm/smooth_criminal_tab_ver_12.html ]
post chorus: 2     chorus ending:you've been hit by you've..
|----------------||----------------------------------------|
|----------------||----------------------------------------|
|----------------||----------------------------------------|
|-3-3-3-3-3--5---||--2-------------2-2--------------2------|
|-3-3-3-3-3--5---||--2-------------2-2--------------2------|
|-3-3-3-3-3--5---||--2-------------2-2--------------2------|


pre-solo: hold this out before u scrape the strings into the solo
|----------------------------------------------------------|
|------------------------10--------------------------------|
|-------------------------9--------------------------------|
|-------------------------7--------------------------------|
|-------------------------7--------------------------------|
|-------------------------7--------------------------------|

solo
|----------------------------------------------------------|
|-1--0-----0-----------------------------------------------|
|-------2-----2--0-----1/2-2-2--1/2-2-2--------------------|
|-------------------2--------------------------------------|
|----------------------------------------------------------|
|----------------------------------------------------------|

  song order
intro/verse 8x
prechorus 1x
chorus 4x
prechorus 1x
chorus ending 1x
intro/verse 4x
prechorus 1x
chorus 4x
post-chorus 1x
chorus ending 1x
intro/verse 2x
pre-solo 1x
solo 8x
chorus 8x
intro/verse 4x
Comments