Alien Ant Farm - Smooth Criminal Solo Chords & Tabs

 

Smooth Criminal Solo Chords & Tabs

Alien Ant Farm Chords & Tabs

Version: 1 Type: Tab 0 ratings
1 star 2 stars 3 stars 4 stars 5 stars
comments

Smooth Criminal Solo Tab

Alien ANT Farm
Smooth Criminal Solo
Tabbed By: mjwk_1986@yahoo.com

Solo

E---------------------------------
B---------------------------------
G-2-let ring----------------------
D-2-------------------------------
A-0-------------------------------
E------------gradual pick scrape--
[ Tab from: http://www.guitartabs.cc/tabs/a/alien_ant_farm/smooth_criminal_solo_tab.html ]
E---------------------------------repeat 5 times and then 
B---------------------------------go into the chorus 
G-5p4---4-------------------------starting with an A5
D-----7---7p5p0-5h7-7-7-5h7-7-7---------------------7-
A---------------------------------------------------7-
E---------------------------------------------------5-

Comments