Alien Ant Farm - Smooth Criminal Chords & Tabs

 

Smooth Criminal Chords & Tabs

Alien Ant Farm Chords & Tabs

Version: 5 Type: Bass Tab 0 ratings
1 star 2 stars 3 stars 4 stars 5 stars
comments

Smooth Criminal Bass Tab

Tabbed by Salvager
Alien ant farm


G:---------------------------------------     
D:---------------------------------------     
A:0-0-0-0---0-h2-2-2x-h3-3-3---3-2------0     
E:--------3------------------------3-----   


G:--------------------------------------------- 
D:----------------3----------------3----------- 
A:-----------------------------------2-2------- 
E:1----1-1--1------------1-1--1------------3--1 


....Annie are you ok...... 

[ Tab from: http://www.guitartabs.cc/tabs/a/alien_ant_farm/smooth_criminal_btab_ver_5.html ]
G:---------------------------------------------- 
D:---------------------------------------------- 
A:---------------------------------------------- 
E:5555-33--3322--22--1-0-1-3-------------------- 
........annie are you ok can you tell us that you're ok..... 


while the guitar solo is gone on you just play the main riff 


G:---------------------------------------     
D:---------------------------------------     
A:0-0-0-0---0-h2-2-2x-h3-3-3---3-2------0     
E:--------3------------------------3-----   

then go through the rest like it is 

theres a part where the notes go down near the end that only this 

G:---------------------------------------     
D:---------------------------------------     
A:0-0-0-0-------------------------------- 
E:--------33--33-22-1-0-1-3-------------- 


I realy hate this song BUT it has a pretty sweet bass in it Enjoy =)
Comments