Alien Ant Farm - Smooth Criminal Chords & Tabs


Smooth Criminal Chords & Tabs

Alien Ant Farm Chords & Tabs

Version: 3 Type: Bass Tab 0 ratings
1 star 2 stars 3 stars 4 stars 5 stars

Smooth Criminal Bass Tab

This is the verse.

G ------------------------
D ------------------------
A ---------2-0h2-33-3-2---
E -555-3h5--------------3-

Then he plays this right before the chorus

E -11-1-0--0-3-5

"Annie are you ok, but your jealous" kind of a bridge there
[ Tab from: ]
He plays basically the same pattern as the pre-chorus for that. Just listen to figure it out.

The Chorus goes like this.

G -------------------
D --------3----3----5
A -------------------
E -1-1-0h1--0h1--0h3-
Repeats itself until "you've been hit by..."
which is just E -00--00--
and then it goes back to the verse

Have Fun
Psalm 1:1-2