Alien Ant Farm - Smooth Criminal Chords & Tabs

 

Smooth Criminal Chords & Tabs

Alien Ant Farm Chords & Tabs

Version: 2 Type: Bass Tab 0 ratings
1 star 2 stars 3 stars 4 stars 5 stars
comments

Smooth Criminal Bass Tab

#----------------------------------PLEASE NOTE---------------------------------#
#This file is the author's own work and represents their interpretation of the-#
#song. You may only use this file for private study, scholarship, or research.-#
#---------------This file was downloaded from www.taborama.com-----------------#
#------------------------------------------------------------------------------#

Alien Ant Farm
"Smooth Criminal"
Tabbed by Adam

I've read that the bassist for this band plays a 6-string.
So, I looked at a picture of the band, and he certainly does.
I find that weird, because unless I'm hearing this wrong,
the only string used in this song is the E.  OK, here goes...

Intro/Verse
G-------------------------------------------|
D-------------------------------------------|
A-------------------------------------------| (x8)
E---5---5-5-5-3-5-7-7---7-7-8-8---8-8-7-3---|

Pre-Chorus ("Are you OK...")
G---------------------------------|
D---------------------------------|
A---------------------------------| (x3)
E--1-1-1-1-1-1-1-1-1-1-----3-3----|
[ Tab from: http://www.guitartabs.cc/tabs/a/alien_ant_farm/smooth_criminal_btab_ver_2.html ]
G----------------------------------------------|
D----------------------------------------------|
A----------------------------------------------| (x1)
E--1-1-1-1-1-1-1-1-1-1-0-0-0-0-0-0-0-0--3-3-3--|

Chorus ("Are you OK, will you tell us that you're OK...")
G-------------------------------------------|
D-------------------------------------------|
A-------------------------------------------| (x4)
E---5-5-5-5---3-3-3-3---1-1-1-1---3-1-3-----|

Post-Chorus ("Are you OK...")
G---------------------------------|
D---------------------------------|
A---------------------------------| (x3)
E--1-1-1-1-1-1-1-1-1-1-----3-3----|

("You've been hit by...")
G-----------------------------------------|
D-----------------------------------------|
A-----------------------------------------| (x1)
E--1---(pause)----0-0--(pause)-----0----0-|

Intro/Verse (x4)

Pre-Chorus

Chorus (x4)

Post-Chorus (First part x1, Second part x1)

Intro/Verse (x8)

Chorus (x8)

Intro/Verse (x4) <-- (You will end on the last note of Intro/Verse)


And that should be all!  Fairly easy...

Questions, comments, requests...E-Mail me at
mystery7punk@hotmail.com



Downloaded from www.taborama.com

================================================================================

Comments