Alien Ant Farm - Sarah Wynn Chords & Tabs

 

Sarah Wynn Chords & Tabs

Alien Ant Farm Chords & Tabs

Version: 1 Type: Bass Tab 0 ratings
1 star 2 stars 3 stars 4 stars 5 stars
comments

Sarah Wynn Bass Tab

         MAIN (don't play first time through)
G|------------------------------------------------|
D|------------------------------------------------|
A|-33--22--22-11-11-11-33-22-22-11111111----------|
E|------------------------------------------------|
             Repeat this part once
HARDCORE PART ("What the hell were you thinking of?")
G|------------------------------------------------|
D|---------3-3-2--2- something like this----------|
A|-3-----11-1-1-11-1------------------------------|
G|--0-2-3-----------------------------------------|


   STRANGE PART ("Habbits are hard to break...")
G|------------------------------------------------|
D|------------------------------------------------|
A|-3---1111111111111111111111111111111111111111111| uh... kinda
E|--0-3-------------------------------------------|

MAIN
HARDCORE (x4)
MAIN (x2)
HARDCORE (x4)
STRANGE 
MAIN (1/2)
HARDCORE (x6)
MAIN (1/2)

I promise this is almost completely correct.
-Paty (Patrick)
[ Tab from: http://www.guitartabs.cc/tabs/a/alien_ant_farm/sarah_wynn_btab.html ]
Comments