Alien Ant Farm - Movies Chords & Tabs

 

Movies Chords & Tabs

Alien Ant Farm Chords & Tabs

Version: 5 Type: Tab 0 ratings
1 star 2 stars 3 stars 4 stars 5 stars
comments

Movies Tab

Hi my name is Travis S. and i think this is a great song and im tired of seeing people tab it wrong so i decided to do something about it.  This song is an up-beat rock song and is in normal tuning (E A D B G E).
So here you go, ENJOY!!! 

 Intro/verse 1&2
|--------------------------------------------------|
|--------------------------------------------------|
|--8/9--9--9--x-x-x-x--8/9--9--9--x-x-x-x----------|
|-------------x-x-x-x-------------x-x-x-x----------|
|--6/7--7--7--x-x-x-x--6/7--7--7--x-x-x-x----------|
|-------------x-x-x-x-------------x-x-x-x----------|

|--------------------------------------------------|
|--------------------------------------------------|
|--------------------------------------------------|
|--7\6----------------------7\6--------------------|
|--7----7-7-7-7-7-7-7-7-7---7----7-7-7-7-7-7-7-7-7-|
|-------0-0-0-0-0-0-0-0-0--------0-0-0-0-0-0-0-0-0-|

 chorus 1
|--------------------------------------------------|
|--------------------------------------------------|
|--8/9--8/9--8/9--8/9--8/9-------------------------|        |-----------------------------7--6--6--6--6--------|
|--6/7--6/7--6/7--6/7--6/7----7--7--7--7--7--------|
|--------------------------------0--0--0--0--------|

|--------------------------------------------------|
|--------------------------------------------------|
|--/11-11-11-11-11-11------------------------------|
|--------------------------------------------------|
|--/-9--9--9--9--9--9------------------------------|
|--------------------------------------------------|

 verse 3
|--------------------------------------------------|
|--------------------------------------------------|
|--6-6-6-6-6-6---9-9-9---4-4-4-4-4-4---6-6-6-------|
|--6-6-6-6-6-6---9-9-9---4-4-4-4-4-4---6-6-6-------|
|--4-4-4-4-4-4---7-7-7---2-2-2-2-2-2---4-4-4-------|
|--------------------------------------------------|

|--------------------------------------------------|
|--------------------------------------------------|
|--------------------------------------------------|
|--6-6-6-6-6-6---7-7-7---9-9-9-9-9-9---------------|
|--6-6-6-6-6-6---7-7-7---9-9-9-9-9-9---------------|
|--4-4-4-4-4-4---5-5-5---7-7-7-7-7-7---0-0-0-0-----|
[ Tab from: http://www.guitartabs.cc/tabs/a/alien_ant_farm/movies_tab_ver_5.html ]
 interlude
|----------------------------------------------------------|
|----------------------------------------------------------|
|--6--6--6--6--6--6--6--6---6-6-------6--6--6--6---6-6-----|
|--6--6--6--6--6--6--6--6-------------6--6--6--6-----------|
|--4--4--4--4--4--4--4--4-------4-4---4--4--4--4-------4-4-|
|----------------------------------------------------------|

|----------------------------------------------------------|
|----------------------------------------------------------|
|--6--6--6--6---6--6--------6--6--6--6--6--6---/11-11-11-11|
|--6--6--6--6---6--6--------6--6--6--6--6--6---------------|
|--4--4--4--4--------4--4---4--4--4--4--4--4---/-9--9--9--9|
|--4--4--4--4--------4--4---4--4--4--4--4--4---------------|

chorus 2
|----------------------------------------------------------|
|----------------------------------------------------------|
|----------------------------------------------------------|
|--7-7-7-7-7-7---6-6-6---4-4-4-4-4-4---7-7-7---10-10-10----|
|--7-7-7-7-7-7---6-6-6---4-4-4-4-4-4---7-7-7---10-10-10----|
|--5-5-5-5-5-5---4-4-4---2-2-2-2-2-2---5-5-5----8--8--8----|

|------------------------------|
|------------------------------|
|-----------------/11-11-11-11-|
|--2-2-2-2-2-2-----------------|
|--2-2-2-2-2-2----/-9--9--9--9-|
|--0-0-0-0-0-0-----------------|

 little riff
|--5--4--2--/5---|
|--5--5--5---5---|
|----------------|
|----------------|
|----------------|
|----------------|

 song order
intro/verse 1&2 (4x's)
chorus (2x's)
intro/verse 1&2 (2x's)
verse 3 (2x's)
chorus 1 (3x's)
little riff (1x)
interlude (1x)
chorus 2 (2x's)
little riff (1x)

---------------------------LYRICS---------------------------
 Verse 1
 At slow speed we all seem focused.
 In motion we seem wrong.
 In summer we can taste the rain.

 Chorus 
 I want you to be free
 Don't wory about me
 And just like the movies
 We play out our last scene

 Verse 2
 Two can play this game
 We both want power
 In winter we can taste the pain

 Verse 3
 In our short years, we come long way
 To treat it bad and throw away.
 In our short years, we come long way
 To treat it bad and throw away.

 Chorus

 You won't cry. I won't scream

 Interlude
 In our short years we come long way
 To treat it bad and throw away
 And if we make a little space
 A science fiction showcase
 In our short-film, a love disgrace
 Dream a scene to brighten face
 In our short years we come long way
 To treat it bad, Just to throw it away

 Chorus
Comments