Alien Ant Farm - Movies Chords & Tabs

 

Movies Chords & Tabs

Alien Ant Farm Chords & Tabs

Version: 2 Type: Bass Tab 0 ratings
1 star 2 stars 3 stars 4 stars 5 stars
comments

Movies Bass Tab

g-----------------------------------------------
d-----------------------------------------------
a--12//-----------------------------------------
e-----------------------------------------------
[ Tab from: http://www.guitartabs.cc/tabs/a/alien_ant_farm/movies_btab_ver_2.html ]
g-----------------------<---------------
d--7----------7---------<---7-----------
a----0-67-------0-67----<-----0-67------ you repeat this a few times
e---------00---------0--<---------------
CHORUS
g---------------------------------------------------
d---------------------------------------------------
a---------------------33----------------------------
e--555555--4--222/5------0000000--4444444--5(let ring)
BRIDGE
g-------------------------------------------
d-------------------------------------------
a--222222---4-----------4----------4--------
e--------------2222222-----4444444---5555555

OUTRO
g-----------------------------------------
d----------------6--7---------------------
a--6---4---2----------9--7----------------
e---------------------------7---0(let ring)

this is more likely to be the original than the other tab I did
Comments