Alien Ant Farm - Hope Chords & Tabs

 

Hope Chords & Tabs

Alien Ant Farm Chords & Tabs

Version: 1 Type: Tab 0 ratings
1 star 2 stars 3 stars 4 stars 5 stars
comments

Hope Tab

   
#----------------------------------PLEASE NOTE--------------------------------#
#This file is the author's own work and represents their interpretation of the#
#song. You may only use this file for private study, scholarship, or research.#
#-----------------------------------------------------------------------------#
#-- File created with Instab - http://www.pconline.com/~smcarey/instab.html --#
#-----------------------------------------------------------------------------#

Author/Artist: Alien Ant Farm
Title: Hope
Album: truANT
Transcribed by: Richard S.
Email: delta88@mindspring.com

Thanks to AAF for making this awsome song.
I think this is about 90% correct as is.
Standard Tuning: E-A-D-G-B-E
Have fun!

---------------------------x6|------------------------------------------------
-----------------------------|----0-------------------------------------------
-8--h9-8h9-8---4---6-4-6-----|----2--6--2-------------------------------------
-9---9-9-9-9---5---5-5-5-----|-4--2--4--2-------------------------------------
-6-------------2-------------|-4--0--4--0-------------------------------------
-7-------------3-------------|-2----------------------------------------------
 Intro                         Turn on your street. . .                       

---------------------------x6|------------------------------------------------
-----------------------------|----0-------------------------------------------
-8--h9-8h9-8---4---6-4-6-----|----2--6--2-------------------------------------
-9---9-9-9-9---5---5-5-5-----|-4--2--4--2-------------------------------------
-6-------------2-------------|-4--0--4--0-------------------------------------
-7-------------3-------------|-2----------------------------------------------
 Finding our. . .              Turn on your street. . .                       

---------------------------x2|------------------------------------------------
-----------------------------|------------------------------------------------
-4-----2--2--4-----2---------|-4-------4--------------------------------------
-4--5--2--2--4--5--2--4------|-4---5---4---5----------------------------------
-2--5--0--0--2--5--0--4------|-2---5---2---5----------------------------------
----3-----------3-----2------|-----3-------3----------------------------------
 If thats. . .                 Bridge                                         
[ Tab from: http://www.guitartabs.cc/tabs/a/alien_ant_farm/hope_tab.html ]
---------------------------x4|---------------------------x4|------------------
-----------------------------|-----------------------------|------------------
-8--h9-8h9-8---4---6-4-6-----|-8--h9-8h9-8---4---6-4-6-----|------------------
-9---9-9-9-9---5---5-5-5-----|-9---9-9-9-9---5---5-5-5-----|------------------
-6-------------2-------------|-6-------------2-------------|------------------
-7-------------3-------------|-7-------------3-------------|------------------
 Trenches dug. . .             And there was. . .                             

---------------------------x2|------------------------------------------------
-----------------------------|------------------------------------------------
-4-----2--2--4-----2---------|------------------------------------------------
-4--5--2--2--4--5--2--4------|-4--4-------------------------------------------
-2--5--0--0--2--5--0--4------|-4--4-------------------------------------------
----3-----------3-----2------|-2--2-------------------------------------------
 If thats. . .                 Bridge 2                                       

------------------------------------------------------------------------------
------------------------------------------------------------------------------
-4--7-----4-----4-----4-----4-------------------------------------------------
-4--7--5--4--5--4--5--4--5--4-------------------------------------------------
-2--5--5--2--5--2--5--2--5--2-------------------------------------------------
-------3-----3-----3-----3----------------------------------------------------
 Turn on your street. . .                                                     

------------------------------------------------------------------------------
------------------------------------------------------------------------------
------------------------------------------------------------------------------
--9-9-9---7---9-9-9---7-------------------------------------------------------
--------9---9-------9---9-10-10-10----9----10-10-10----9----------------------
-----------------------------------10---10----------10---10-------------------
 Guitar Solo                          Note: Violin does a different riff. . . 

------------------------------------------------------------------------------
------------------------------------------------------------------------------
------------------------------12--14-14---------------------------------------
-9-9-9-9-12-9-13-9-9-9-12-9----x---x--x---------------------------------------
------------------------------10--12-12---------------------------------------
------------------------------------------------------------------------------
                                                                              

---------------------------x4|-----------|------------------------------------
-----------------------------|-----------|------------------------------------
-4-----2--2--4-----2---------|-----------|--4---------------------------------
-4--5--2--2--4--5--2--4------|--4--4-----|--4---------------------------------
-2--5--0--0--2--5--0--4------|--4--4-----|--2---------------------------------
----3-----------3-----2------|--2--2-----|------------------------------------
 If thats. . .                  Bridge 2                                      

Comments