Alien Ant Farm - Goodbye Chords & Tabs

 

Goodbye Chords & Tabs

Alien Ant Farm Chords & Tabs

Version: 1 Type: Tab 0 ratings
1 star 2 stars 3 stars 4 stars 5 stars
comments

Goodbye Tab

Band- Alien Ant Farm
Song- Goodbye

Standard Tuning

Intro/Verse (distorted, verse palm muted)
e|---------------------------------------------------------------------------|
b|---------------------------------------------------------------------------|
g|---------------------------------------------------------------------------|
d|-------------8-------8------------------8-------8----------------8-------8-|
a|---10-8-8-10---10-10---10-----10-8-8-10---10-10---10---10-8-8-10---10-10---|
E|-8------------------------6\7------------------------6---------------------|
                              This starts the second part
e|----------------------------\/----------------------------------------------|
b|----------------------------------------------------------------------------|
g|----------------------------------------------------------------------------|
d|---------------8-------8-----------------8-------8----------------8-------8-|
a|10---10-8-8-10---10-10---10---10-8-8-10---10-10---10----10-8-8-10---10-10---|
E|---7------------------------8------------------------10---------------------|

e|-------------------------------------------------------|
b|-------------------------------------------------------|
g|-------------------------------------------------------|
d|----------------8-------8------------------------------|
a|10----10-8-8-10---10-10---10----10-8-8-10---10-8-8-10--|(that’s close enough)
E|---11------------------------10-----------9------------|
[ Tab from: http://www.guitartabs.cc/tabs/a/alien_ant_farm/goodbye_tab.html ]
Bridge & Chorus (distorted, ====== is strum many times, too many to count)
e|-------------------------------------------|
b|-------------------------------------------|
g|--8-======-======--12-======-======-12/10--|
d|--X-======-======--X--======-======-X------|
a|--6-======-======--10-======-======-10/8---|
E|-------------------------------------------|

Other part/ two guitar parts (distorted)
e|-8\11-10-8-6-3----7-10--|
b|-8\11-11-8-6-3----8-10--|
g|------------------------|
d|------------------------|
a|------------------------|
E|------------------------|

Guitar two
e|-------------|
b|-13/8—12/8---|
g|-------------|
d|-------------|
a|-------------|
E|-------------|

Next part “You never caught that…” (lightly distorted)
e|--------------------------|
b|-------4-----------3------|
g|---3-----3-----3-----3----|
d|-5---5-----5-5---5-----5--|
a|--------------------------|
E|--------------------------|

Ending (distorted) ====== means to play many times
e|---------------------------------------------------------------------------|
b|---------------------------------------------------------------------------|
g|-8-======-555-7-8-======-10-=====-12-======--pick---555-7------------------|
d|-X-======-XXX-X-X-======-X--=====--X-======---------XXX-X—play-chorus-now--|
a|-6-======-333-5-6-======-8--=====-10-======--slide--333-5------------------|
E|---------------------------------------------------------------------------|

Fade out with this note
e|--------|
b|--------|
g|-12-===-
d|--X-===-
a|-10-===-
E|--------
Comments