Alien Ant Farm - Good For A Woman Chords & Tabs

 

Good For A Woman Chords & Tabs

Alien Ant Farm Chords & Tabs

Version: 2 Type: Tab 0 ratings
1 star 2 stars 3 stars 4 stars 5 stars
comments

Good For A Woman Tab

good(for a woman) alien ant farm-american pie 2 soundtrack

Tuning: standard w/ distortion

intro  gtr 1 strum each chord a lot..listen for timming
e|-------------------------------------------------------------------------|
B|-------------------------------------------------------------------------|
G|-----7-------------------------------------------------------------------|
D|--7--7--4--6-------------------------------------------------------------|
A|--7--5--4--4-------------------------------------------------------------|
E|--5-----2--4-------------------------------------------------------------|
       guitar 2 comes in and strum each one once

 the last part of intro
e|-------------------------------------------------------------------------|
B|-------------------------------------------------------------------------|
G|-------------------------------------------------------------------------|
D|-------------------------------------------------------------------------|
A|------44454---------44----55---------------------------------------------|
E|--5-5-------5-2-2------5-5-----------------------------------------------|
[ Tab from: http://www.guitartabs.cc/tabs/a/alien_ant_farm/good_for_a_woman_tab_ver_2.html ]
Verse   repeat throughout   listen to add some slides in between too
e|-------------------------------------------------------------------------|
B|-------------------------------------------------------------------------|
G|------------7-7-------------7-7------------------------------------------|
D|--7-7--4-4--7-7--7-77--6-6--7-7------------------------------------------|
A|--7-7--4-4--5-5--7-77--4-6--5-5------------------------------------------|
E|--5-5--2-2-------5-55--4-4-----------------------------------------------|
     pause in between 755 and 422 and all the others listen for the timming

Chorus is the same as both intro parts - add a pickslide or slide down 
on the 6th string from around 12 for gtr 2 BEFORE the chorus starts-listen for it


Sorry no solo..its pretty sweet but im not that good yet..if anyone can figure
it out send a solo in for me please

when the solo starts and ends with "My head's spinning
Around the world and back again" listen to match up with the beginning part of solo
e|-------------------------------------------------------------------------|
B|-------------------------------------------------------------------------|
G|-------------------------------------------------------------------------|
D|----7-7-7-7-6-6-6-6------------------------------------------------------|
A|----7-7-7-7-4-4-4-4------------------------------------------------------|
E|----5-5-5-5-4-4-4-4------------------------------------------------------|

after that the good part of the solo kicks in and I think guitar 2 plays chorus part
in the background--after solo is the chorus
Comments