Alien Ant Farm - Good For A Woman Chords & Tabs

 

Good For A Woman Chords & Tabs

Alien Ant Farm Chords & Tabs

Version: 1 Type: Tab 2 ratings
1 star 2 stars 3 stars 4 stars 5 stars
comments

Good For A Woman Tab

Author/Artist: Alien Ant Farm
Title: Good for a Woman
Album: American Pie Soundtrack
Transcribed by: Mark J
Email: espedal15@hotmail.com



Intro
e----------------------------------------------|
b----------------------------------------------|
g--2-2-2---7-7-7-----------6-6-6---------------|     
d--2-2-2---7-7-7---4-4-4---6-6-6---------------|   x2
a--0-0-0---5-5-5---4-4-4---4-4-4---------------|
e------------------2-2-2-----------------------| 

e----------------------------------------------|
b----------------------------------------------|
g-2-2-6-6-6-7-6-4-----6-2-2-7------------------|
d-2-2-6-6-6-7-6-4-4-4-6-2-2-7------------------|   x2
a-0-0-4-4-4-5-4-2-4-4-4-0-0-5------------------|
e-----------------2-2--------------------------| 


Verse
e----------------------------------------------|
b----------------------------------------------|
g--2-----------7-----2-----------7-------------|
d--2-----4-----7-----2-----4-----7-------------|   x2
a--0-0---4-----5-5---0-0---4-----5-5-----------|
e--------2-2---------------2-2-----------------| 
[ Tab from: http://www.guitartabs.cc/tabs/a/alien_ant_farm/good_for_a_woman_tab.html ]
Chorus
e----------------------------------------------|
b----------------------------------------------|
g--2-2-2---7-7-7-----------6-6-6---------------|     
d--2-2-2---7-7-7---4-4-4---6-6-6---------------|   x2
a--0-0-0---5-5-5---4-4-4---4-4-4---------------|
e------------------2-2-2-----------------------| 

e----------------------------------------------|
b----------------------------------------------|
g----------------------------------------------|
d-----------0---------------0------------------|   x2
a-0-0-4-4-4---4-2-----4-0-0--------------------|
e-----------------2-2--------------------------| 


Verse
e----------------------------------------------|
b----------------------------------------------|
g--2-----------7-----2-----------7-------------|
d--2-----4-----7-----2-----4-----7-------------|   x2
a--0-0---4-----5-5---0-0---4-----5-5-----------|
e--------2-2---------------2-2-----------------| 
Chorus
e----------------------------------------------|
b----------------------------------------------|
g--2-2-2---7-7-7-----------6-6-6---------------|     
d--2-2-2---7-7-7---4-4-4---6-6-6---------------|   x6
a--0-0-0---5-5-5---4-4-4---4-4-4---------------|
e------------------2-2-2-----------------------| 


I changed the solo in the intro to make it sound better on this tab. Email me. Complaints? Save yourself and me the time and don’t bother. Its an awesome song. Good luck

Comments