Alien Ant Farm - Glow Chords & Tabs

 

Glow Chords & Tabs

Alien Ant Farm Chords & Tabs

Version: 3 Type: Tab 0 ratings
1 star 2 stars 3 stars 4 stars 5 stars
comments

Glow Tab

   
#----------------------------------PLEASE NOTE------------------------------
#This file is the author's own work and represents their interpretation of
the song. You may only use this file for private study, scholarship, or research. 
#---------------------------------------------------------------------------

                                    GLOW SOLO
                          As recorded by Alien Ant Farm

Music by Alien Ant Farm
Transcribed by Rory Monro
Hey, heres the full solo up where he actually plays it.
Enjoy.

Contact at rorz00@hotmail.com 


Gtr I (E A D G B E) 
 
|---------------------------------------------------------------------------
|---------------------------------------------------------------------------
|--------12----------14-------/15-14-12-------------------------------------
|-12-/14----14-13-12----12-12-----------------------------------------12-14-
|------------------------------------------12b13r12-------------12-14-------
|---------------------------------------15----------15-15-12-15-------------


|----------------------------------------------------------------------|
|----------------------------------------------------------------------|
|-12-------------14-14-12-12-------------------------------------------|
|----14p12h14-14-------------14-14-14p12----------------------12-------|
|----------------------------------------14-14-13-12-14-12-14----14----|
|----------------------------------------------------------------------|


|-------------------------------------------------12----12-12-12-12----|
|-------------------------------12----12-15-12-15----15----------------|
|-------------12----12-14-12-14----14----------------------------------|
|-12-14-12-14----14----------------------------------------------------|
|----------------------------------------------------------------------|
|----------------------------------------------------------------------|

[ Tab from: http://www.guitartabs.cc/tabs/a/alien_ant_farm/glow_tab_ver_3.html ]
|-/15-15-14-14-12-12-10-/12-12-10-/12-12-10-------------/15-15-14-14-12----|
|-------------------------------------------12-12-12-12--------------------|
|--------------------------------------------------------------------------|
|--------------------------------------------------------------------------|
|--------------------------------------------------------------------------|
|--------------------------------------------------------------------------|


|-12-----------------------------------------------------------------------|
|----12-/14-14-14b16r14----------------------------------------------------|
|----12-/14-14-14b16r14-14-12-------12h14-12-11h12----11----------11-12----|
|-----------------------------14-14----------------14----14-12-14----------|
|--------------------------------------------------------------------------|
|--------------------------------------------------------------------------|


|-------------------------------------------------17b19==19r17-15-----------
|----------12----12-13-12-15-12-15-12-15-12-15-12-----------------17-15b17--
|-14-12-14----14------------------------------------------------------------
|---------------------------------------------------------------------------
|---------------------------------------------------------------------------
|---------------------------------------------------------------------------

Tablature Legend
----------------
 h   - hammer-on
 p   - pull-off
 b   - bend
 pb  - pre-bend
 r   - bend release (if no number after the r, then release immediately)
 /\  - slide into or out of (from/to "nowhere")
 s   - legato slide
 S   - shift slide
  - natural harmonic
[n]  - artificial harmonic
n(n) - tapped harmonic
 ~   - vibrato
 tr  - trill
 T   - tap
 TP  - trem. picking
 PM  - palm muting
\n/  - tremolo bar dip; n = amount to dip
 \n  - tremolo bar down
 n/  - tremolo bar up
/n\  - tremolo bar inverted dip
 =   - hold bend; also acts as connecting device for hammers/pulls
 <>  - volume swell (louder/softer)
 x   - on rhythm slash represents muted slash
 o   - on rhythm slash represents single note slash

Misc Legend
-----------
 |  - bar
||  - double bar
||o - repeat start
o|| - repeat end
*|  - double bar (ending)
 :  - bar (freetime)
 $  - Segno
 &  - Coda
Tempo markers -  = BPM(8/16=s8/s16), where s8 = swing 8ths, s16 = swing 16ths


***************************************************************************************
* Generated using Power Tab Editor by Brad Larsen - http://powertab.guitarnetwork.org *
***************************************************************************************



 
 
 

Copyright 1999-2004 Mxtabs | Contact | Advertise | FAQ
Comments