Alien Ant Farm - Glow Chords & Tabs

 

Glow Chords & Tabs

Alien Ant Farm Chords & Tabs

Version: 2 Type: Tab 0 ratings
1 star 2 stars 3 stars 4 stars 5 stars
comments

Glow Tab

   
Alien ant farm glow

Standard Tunning 

D = Strum down
U = Strum up

INTRO 
e ---------------------------------------------
B ---------------------------------------------
G --------------------------------------------- 4x
D ---------------------------------------------
A -10--10-10--10--10-10--8---8--8---7--7-7--7-
E -8---8--8---7---7--7---6---6--6---5--5--5-5-
   D   D  U   D   D  U   D   D  U   D  U  D  U  

e -------------------------------------------------------
B -------------------------------------------------------
G -------------------------------------------------------
D -------------------------------------------------------
A -10--10-10--12---12--12---13---13--13---12--12--12--12-
E -8---8--8---10---10--10---11---11--11---10--10--10--10-
   D   D  U   D    D   U    D    D   U    D   U   D   U

e -------------------------------------
B -------------------------------------
G -------------------------------------
D -------------------------------------
A -5-5-5-5--6-6-6-6--9-9-9-9--10101010-
E -3-3-3-3--3-3-3-3--7-7-7-7--8-8-8-8--
   D D D D  D D D D  D D D D  D D D D

RIFF
e ---------------------------------------------
B ---------------------------------------------
G --------------------------------------------- 2x
D ---------------------------------------------
A -10--10-10--10--10-10--8---8--8---7--7-7--7-
E -8---8--8---7---7--7---6---6--6---5--5--5-5-
   D   D  U   D   D  U   D   D  U   D  U  D  U  

e -------------------------------------------------------
B -------------------------------------------------------
G -------------------------------------------------------
D -------------------------------------------------------
A -10--10-10--12---12--12---13---13--13---12--12--12--12-
E -8---8--8---10---10--10---11---11--11---10--10--10--10-
   D   D  U   D    D   U    D    D   U    D   U   D   U

e -------------------------------------
B -------------------------------------
G -------------------------------------
D -------------------------------------
A -5-5-5-5--6-6-6-6--9-9-9-9--10101010-
E -3-3-3-3--3-3-3-3--7-7-7-7--8-8-8-8--
   D D D D  D D D D  D D D D  D D D D





CHORUS
e ----------------------------------------
B ----------------------------------------
G -9-9--5-5-------5-5--9-9--5-5-------5-5-
D -9-9--5-5--5-5--5-5--9-9--5-5--5-5--5-5-
A -7-7--3-3--5-5--3-3--7-7--3-3--5-5--3-3-
E -----------3-3-----------------3-3------
   D D  D D  D D  D D  D D  D D  D D  D D

e --------------------
B --------------------
G -9-9--5-5-----------
D -9-9--5-5--3-3--3-3-
A -7-7--3-3--3-3--3-3-
E -----------1-1--1-1-
   D D  D D  D D  D D
 
e ----------------------------------------
B ----------------------------------------
G -9-9--5-5-------5-5--9-9--5-5-------5-5-
D -9-9--5-5--5-5--5-5--9-9--5-5--5-5--5-5-
A -7-7--3-3--5-5--3-3--7-7--3-3--5-5--3-3-
E -----------3-3-----------------3-3------
   D D  D D  D D  D D  D D  D D  D D  D D

RIFF
e ---------------------------------------------
B ---------------------------------------------
G --------------------------------------------- 4x
D ---------------------------------------------
A -10--10-10--10--10-10--8---8--8---7--7-7--7-
E -8---8--8---7---7--7---6---6--6---5--5--5-5-
   D   D  U   D   D  U   D   D  U   D  U  D  U  

e -------------------------------------------------------
B -------------------------------------------------------
G -------------------------------------------------------
D -------------------------------------------------------
A -10--10-10--12---12--12---13---13--13---12--12--12--12-
E -8---8--8---10---10--10---11---11--11---10--10--10--10-
   D   D  U   D    D   U    D    D   U    D   U   D   U

e -------------------------------------
B -------------------------------------
G -------------------------------------
D -------------------------------------
A -5-5-5-5--6-6-6-6--9-9-9-9--10101010-
E -3-3-3-3--3-3-3-3--7-7-7-7--8-8-8-8--
   D D D D  D D D D  D D D D  D D D D
[ Tab from: http://www.guitartabs.cc/tabs/a/alien_ant_farm/glow_tab_ver_2.html ]
CHORUS
e ----------------------------------------
B ----------------------------------------
G -9-9--5-5-------5-5--9-9--5-5-------5-5-
D -9-9--5-5--5-5--5-5--9-9--5-5--5-5--5-5-
A -7-7--3-3--5-5--3-3--7-7--3-3--5-5--3-3-
E -----------3-3-----------------3-3------
   D D  D D  D D  D D  D D  D D  D D  D D



e --------------------
B --------------------
G -9-9--5-5-----------
D -9-9--5-5--3-3--3-3-
A -7-7--3-3--3-3--3-3-
E -----------1-1--1-1-
   D D  D D  D D  D D

e ------------------------------------------------------------
B ------------------------------------------------------------
G -9-9--5-5-------5-5--9-9--5-5-------5-5--9-9--5-5-------5-5-
D -9-9--5-5--5-5--5-5--9-9--5-5--5-5--5-5--9-9--5-5--5-5--5-5-
A -7-7--3-3--5-5--3-3--7-7--3-3--5-5--3-3--7-7--3-3--5-5--3-3-
E -----------3-3-----------------3-3-----------------3-3------
   D D  D D  D D  D D  D D  D D  D D  D D  D D  D D  D D  D D

e --------------------
B --------------------
G -9-9--5-5-----------
D -9-9--5-5--3-3--3-3-
A -7-7--3-3--3-3--3-3-
E -----------1-1--1-1-
   D D  D D  D D  D D

e ----------------------------------------
B ----------------------------------------
G -9-9--5-5-------5-5--9-9--5-5-------5-5-
D -9-9--5-5--5-5--5-5--9-9--5-5--5-5--5-5-
A -7-7--3-3--5-5--3-3--7-7--3-3--5-5--3-3-
E -----------3-3-----------------3-3------
   D D  D D  D D  D D  D D  D D  D D  D D

RIFF
e ---------------------------------------------
B ---------------------------------------------
G --------------------------------------------- 
D ---------------------------------------------
A -10--10-10--10--10-10--8---8--8---7--7-7--7-
E -8---8--8---7---7--7---6---6--6---5--5--5-5-
   D   D  U   D   D  U   D   D  U   D  U  D  U  

e -------------------------------------
B -------------------------------------
G -------------------------------------
D -------------------------------------
A -5-5-5-5--6-6-6-6--9-9-9-9--10101010-
E -3-3-3-3--3-3-3-3--7-7-7-7--8-8-8-8--
   D D D D  D D D D  D D D D  D D D D

SOLO

INSTRUMENT BREAK 

CHORUS
e ----------------------------------------
B ----------------------------------------
G -9-9--5-5-------5-5--9-9--5-5-------5-5-
D -9-9--5-5--5-5--5-5--9-9--5-5--5-5--5-5-
A -7-7--3-3--5-5--3-3--7-7--3-3--5-5--3-3-
E -----------3-3-----------------3-3------
   D D  D D  D D  D D  D D  D D  D D  D D
e --------------------
B --------------------
G -9-9--5-5-----------
D -9-9--5-5--3-3--3-3-
A -7-7--3-3--3-3--3-3-
E -----------1-1--1-1-
   D D  D D  D D  D D

e ------------------------------------------------------------
B ------------------------------------------------------------
G -9-9--5-5-------5-5--9-9--5-5-------5-5--9-9--5-5-------5-5-
D -9-9--5-5--5-5--5-5--9-9--5-5--5-5--5-5--9-9--5-5--5-5--5-5-
A -7-7--3-3--5-5--3-3--7-7--3-3--5-5--3-3--7-7--3-3--5-5--3-3-
E -----------3-3-----------------3-3-----------------3-3------
   D D  D D  D D  D D  D D  D D  D D  D D  D D  D D  D D  D D

e --------------------
B --------------------
G -9-9--5-5-----------
D -9-9--5-5--3-3--3-3-
A -7-7--3-3--3-3--3-3-
E -----------1-1--1-1-
   D D  D D  D D  D D

e ------------------------------------------------------------
B ------------------------------------------------------------
G -9-9--5-5-------5-5--9-9--5-5-------5-5--9-9--5-5-------5-5-
D -9-9--5-5--5-5--5-5--9-9--5-5--5-5--5-5--9-9--5-5--5-5--5-5-
A -7-7--3-3--5-5--3-3--7-7--3-3--5-5--3-3--7-7--3-3--5-5--3-3-
E -----------3-3-----------------3-3-----------------3-3------
   D D  D D  D D  D D  D D  D D  D D  D D  D D  D D  D D  D D

RIFF
e ---------------------------------------------
B ---------------------------------------------
G --------------------------------------------- 3x
D ---------------------------------------------
A -10--10-10--10--10-10--8---8--8---7--7-7--7-
E -8---8--8---7---7--7---6---6--6---5--5--5-5-
   D   D  U   D   D  U   D   D  U   D  U  D  U  

e -------------------------------------
B -------------------------------------
G -------------------------------------
D -------------------------------------
A -5-5-5-5--6-6-6-6--9-9-9-9--10101010-
E -3-3-3-3--3-3-3-3--7-7-7-7--8-8-8-8--
   D D D D  D D D D  D D D D  D D D D

END ON
e ---
B ---
G -9-
D -9-
A -7-
E ---
   D
Comments