Alien Ant Farm - Flesh And Bone Chords & Tabs

 

Flesh And Bone Chords & Tabs

Alien Ant Farm Chords & Tabs

Version: 1 Type: Bass Tab 0 ratings
1 star 2 stars 3 stars 4 stars 5 stars
comments

Flesh And Bone Bass Tab

Artist: Alien Ant Farm
Song: Flesh and Bone
Album: Anthology

This is a good song great bass line
tabs in paranthesis are harmonics
Send Questions or comments to slipvayne1@hotmail.com

Fill
G------------
D------------
A-----0-2-0-2
E-2-3--------

Intro
G----------------------------------------------------
D----------------------------------------------------
A-0-0-2--0-0-2--0-0-2--0-0-2------0-0-2--0-0-2--0-0-2
E------------------------------9---------------------

Fill
G------------
D------------
A-----0-2-0-2
E-2-3--------

Verse

G---------------------------------------------------------
D--(5)(5)---------(5)(5)--------(5)----------(5)----0-0-2-    X4
A--(5)(5)--0-0-2--(5)(5)--0-0-2----(5)--0-0-2---(5)-0-0-2-
E---------------------------------------------------------
[ Tab from: http://www.guitartabs.cc/tabs/a/alien_ant_farm/flesh_and_bone_btab.html ]
Chorus
each note is played 16 times except for the 0's and 1's on the A string which are played 8X

G--------------
D-0-------0----
A---0-1--------
E-------2---2-3


No sure what yah call this is called
G-----------------------------------------
D----------------------------------0-2-0-2
A-0-0-2---0-0-2--0-0-2--0-0-2--2-3--------
E-----------------------------------------

Verse X4

Chorus X2

Interlude

G-----------------------------------------------------------------------------------
D-----------------------------------------------------------------------------------
A-2---0-------------0-2---0-2----2------0-----------0-2---2--0--------------0-2--0-2
E-------3--2---2--3-----------------2------0---2-3-------------3---2---2--3---------


Slow Breakdown Part

G-------------
D-------------
A-5/9--3/7-0-0
E-------------

Verse X2

Then Chorus for the rest of the song
Comments