Alien Ant Farm - Courage Chords & Tabs

 

Courage Chords & Tabs

Alien Ant Farm Chords & Tabs

Version: 4 Type: Tab 0 ratings
1 star 2 stars 3 stars 4 stars 5 stars
comments

Courage Tab

Author/Artist: Alien Ant Farm
Title: #1 Courage
Album: ANThology
Transcribed by: Giles Harding
Email: gilesharding1977@hotmail.com

Dropped D tuning


---------------------------------------------------------------------------------------
-(-Played 1st, 2nd, 4th bars-)-----(played 3rd bar only-)------------------------------
---------------------------------------------------------------------------------------
------^---^----------------------------------------------------------------------------
---4-4-0---0---0-4-5-4-4-2-4------4-4-0---0---0-4-4-3-2-------------------------------
-4-------4---4---------4-2-4------------4---4-----4-3-2-------------------------------
 
 Intro [played x 4]


---------------------------------------------------------------------------------------
---------------------------------------------------------------------------------------
---------------------------------------------------------------------------------------
---------------------------------------------------------------------------------------
-2-```````````-3-```````````---------------0-```````````-------------------------------
-----------------------------0-```````````-0-```````````-------------------------------

 Verse 1 (played with heavy vibrato on tremelo) [played x 2]   

[ Tab from: http://www.guitartabs.cc/tabs/a/alien_ant_farm/courage_tab_ver_4.html ]
---------------------------------------------------------------------------------------
---------------------------------------------------------------------------------------
---------------------------------------------------------------------------------------
------^---^----------------------------------------------------------------------------
---4-4-0---0---0-4-5-4-4-2-4-----------------------------------------------------------
-4-------4---4---------4-2-4-----------------------------------------------------------
   
 [Played x 4]                                                                


---------------------------------------------------------------------------------------
---------------------------------------------------------------------------------------
---------------------------------------------------------------------------------------
-4----6--7----0----9--7--6----4--7--0----2--3--4--------------------------------------
-4----6--7----0----9--7--6----4--7--0----2--3--4--------------------------------------
-4----6--7----0----9--7--6----4--7--0----2--3--4--------------------------------------
 
"I never said you were a mistake at all, you got it all wrong, you misundersatnd me"        
[played x 4] (extra rhythm on bar notes last 2 times)


---------------------------------------------------------------------------------------
---------------------------------------------------------------------------------------
---------------------------------------------------------------------------------------
------^-----------------^-----------------------------------------^----------^---------
-4-4-4-0---0-4-4---4-4-4-0---0-4-4---6-6-0---0-6-6---7-7-7-0---9-11-11-11-9-11-11-11---
-4-4-----4---4-4---4-4-----4---4-4---6-----6---6-6---7-7-------9-11-11-11-9-11-11-11---
                                                         
Middle 8

Email me any comments/Suggestions, especially on the tricky intro. Hope this helps anyway
Comments