Alien Ant Farm - Calico Chords & Tabs

 

Calico Chords & Tabs

Alien Ant Farm Chords & Tabs

Version: 2 Type: Bass Tab 0 ratings
1 star 2 stars 3 stars 4 stars 5 stars
comments

Calico Bass Tab

Band: Alien Ant Farm
Song: Calico
Tabber: Aris Spy ®


|----------------------------------------------------------------------|
|----------------------------------------------------------------------|
|-------------1-1-1-1-1-1---------------3-3-3-3-3-1--------------------|  x4
|-2-2-2-2-2-2--------------2-2-2-2-2-2-2-------------------------------|


|----------------------------------------------------------------------|
|----------------------------------------------------------------------|
|-------------1-------------------------3----/12-----------------------|  x4
|-2------------------------2-------------------------------------------|
let ring>>>>>>>>>>>>>>>>>>>>>>>>>>>>>>>>>>>>>>>>


|----------------------------------------------------------------------|
|----------------------------------------------------------------------|
|-----4--------4--------6--------6-------7--------7--------9--------9--|  x2
|-2-2--x-x-2-2--x-x-4-4--x-x-4-4--x-x-5-5--x-x-5-5--x-x-7-7--x-x-7-7---|


|----------------------------------------------------------------------|
|----------------------------------------------------------------------|
|-------------1-------------------------3----/12-----------------------|  x4
|-2------------------------2-------------------------------------------|
let ring>>>>>>>>>>>>>>>>>>>>>>>>>>>>>>>>>>>>>>>>

[ Tab from: http://www.guitartabs.cc/tabs/a/alien_ant_farm/calico_btab_ver_2.html ]
|----------------------------------------------------------------------|
|----------------------------------------------------------------------|
|-----4--------4--------6--------6-------7--------7--------9--------9--|  x4
|-2-2--x-x-2-2--x-x-4-4--x-x-4-4--x-x-5-5--x-x-5-5--x-x-7-7--x-x-7-7---|

interlude/
|----------------------------------------------------------------------|
|--------------------------------------------7-------------------------|
|----7-----7------7-------7---------5--7--9---------7------7------7----|
|5-5---5-5----5-5----5-5------5--7--------------5-5----5-5----5-5------|
                                                .......................
                                                ...repeat as needed....

|----------------------------------------------------------------------|
|----------------------------------------------------------------------|
|-------------1-1-1-1-1-1---------------3-3-3-3-3-1--------------------|  x4
|-2-2-2-2-2-2--------------2-2-2-2-2-2-2-------------------------------|

|----------------------------------------------------------------------|
|----------------------------------------------------------------------|
|-----4--------4--------6--------6-------7--------7--------9--------9--|  x4
|-2-2--x-x-2-2--x-x-4-4--x-x-4-4--x-x-5-5--x-x-5-5--x-x-7-7--x-x-7-7---|


thats it!
ENJOY!
o nasos goustarei tin nataly!!
Made by the Nipples Guitar PLayer Aris Spy®
Nipples® Production 2005
Comments