Alien Ant Farm - Attitude Chords & Tabs

 

Attitude Chords & Tabs

Alien Ant Farm Chords & Tabs

Version: 1 Type: Tab 0 ratings
1 star 2 stars 3 stars 4 stars 5 stars
comments

Attitude Tab

Song: Attitude
Band: Alien Ant Farm
Album: Anthology
Tabber: Barry French (Bazdurst)

Tuning: EADGBE

E-----------------------------------------------------------------
B-0h3---0-0---3p0-0h3---0-0---5p0-0h5---0-0---2p0-0h2---0-0---3p0-
G-----2-----2---------2-----2---------2-----2---------2-----2-----
D-----------------------------------------------------------------
A-----------------------------------------------------------------
E-----------------------------------------------------------------

E-----------------------------------------------------------------
B-0h3---0-0---3p0-0h3---0-0---5p0-0h5---0-0---2p0-0h2---0-0---3p0-
G-----2-----2---------2-----2---------2-----2---------2-----2-----
D-----------------------------------------------------------------
A-----------------------------------------------------------------
E-----------------------------------------------------------------

E-----------------------------------------------------------------
B-0h3---0-0---3p0-0h3---0-0---5p0-0h5---0-0---2p0-0h2---0-0---3p0-
G-----2-----2---------2-----2---------2-----2---------2-----2-----
D-----------------------------------------------------------------
A-----------------------------------------------------------------
E-----------------------------------------------------------------

E-----------------------------------------------------------------
B-0h3---0-0---3p0-0h3---0-0---5p0-0h5---0-0---2p0-0h2---0-0---3p0-
G-----2-----2---------2-----2---------2-----2---------2-----2-----
D-----------------------------------------------------------------
A-----------------------------------------------------------------
E-----------------------------------------------------------------

E-----------------------------------------------------------------
B-0h3---0-0---3p0-0h3---0-0---3p0-0h3---0-0---3p0-0h3---0-0---3p0-
G-----2-----2---------2-----2---------2-----2---------2-----2-----
D-----------------------------------------------------------------
A-----------------------------------------------------------------
E-----------------------------------------------------------------

E------
B-3-0--
G----2-               Played w/ moderate reverb
D------
A------
E------                        

E----------------------------------------------------------
B----------------------------------------------------------
G----------------------------------------------------------
D----------------------------------------------------------
A-----5---5----7----9----9--------4---4--------2---2-----4-
E-0/7---7---/9---10---10---10\5-5---5---5/3--3---3---3/5---

E----------------------------------------------------------
B----------------------------------------------------------
G----------------------------------------------------------
D------------------------------------------2--5--2--5----7-
A-----5---5----7----9----9---------4---4--------------/9---
E-0/7---7---/9---10---10---10\5--5---5---5-----------------

E--------------
B--------------
G--------------
D------------5-
A-5-7-9--4-7---
E-7-9-10-5-----

E-----------
B-----------
G-2-2-2-----
D-------5-4-
A-----------
E-----------

E-------14-------/15----
B-15-------15--------15-
G----14-------14--------
D-----------------------
A-----------------------
E-----------------------

E----------------------------------------------------------
B----------------------------------------------------------
G----------------------------------------------------------
D----------------------------------------------------------
A-----5---5----7----9----9--------4---4--------2---2-----4-
E-0/7---7---/9---10---10---10\5-5---5---5/3--3---3---3/5---
[ Tab from: http://www.guitartabs.cc/tabs/a/alien_ant_farm/attitude_tab.html ]
E----------------------------------------------------------
B----------------------------------------------------------
G----------------------------------------------------------
D------------------------------------------2--5--2--5----7-
A-----5---5----7----9----9---------4---4--------------/9---
E-0/7---7---/9---10---10---10\5--5---5---5-----------------

E--------------
B--------------
G--------------
D------------5-
A-5-7-9--4-7---
E-7-9-10-5-----


E-----------------------------------------------------------------
B-0h3---0-0---3p0-0h3---0-0---5p0-0h5---0-0---2p0-0h2---0-0---3p0-
G-----2-----2---------2-----2---------2-----2---------2-----2-----
D-----------------------------------------------------------------
A-----------------------------------------------------------------
E-----------------------------------------------------------------

E-----------------------------------------------------------------
B-0h3---0-0---3p0-0h3---0-0---5p0-0h5---0-0---2p0-0h2---0-0---3p0-
G-----2-----2---------2-----2---------2-----2---------2-----2-----
D-----------------------------------------------------------------
A-----------------------------------------------------------------
E-----------------------------------------------------------------

E-----------------------------------------------------------------
B-0h3---0-0---3p0-0h3---0-0---5p0-0h5---0-0---2p0-0h2---0-0---3p0-
G-----2-----2---------2-----2---------2-----2---------2-----2-----
D-----------------------------------------------------------------
A-----------------------------------------------------------------
E-----------------------------------------------------------------

E-----------------------------------------------------------------
B-0h3---0-0---3p0-0h3---0-0---5p0-0h5---0-0---2p0-0h2---0-0---3p0-
G-----2-----2---------2-----2---------2-----2---------2-----2-----
D-----------------------------------------------------------------
A-----------------------------------------------------------------
E-----------------------------------------------------------------

E----------------------------------------------------------|
B-2h5-0-2-2-0-5p2--2h5-0-2-2-0-7p0--0h7-0-2-2-0-4p0--0h4-0-|
G----------------------------------------------------------|
D----------------------------------------------------------|
A----------------------------------------------------------|
E----------------------------------------------------------|

E----------------------------------------------------------|
B-2-2-0-5p2------------------------------------------------|
G----------------------------------------------------------|
D----------------------------------------------------------|
A----------------------------------------------------------|
E----------------------------------------------------------|

E-----------------------------------------------------------------
B-0h3---0-0---3p0-0h3---0-0---5p0-0h5---0-0---2p0-0h2---0-0---3p0-
G-----2-----2---------2-----2---------2-----2---------2-----2-----
D-----------------------------------------------------------------
A-----------------------------------------------------------------
E-----------------------------------------------------------------

E-----------------------------------------------------------------
B-0h3---0-0---3p0-0h3---0-0---3p0-0h3---0-0---3p0-0h3---0-0---3p0-
G-----2-----2---------2-----2---------2-----2---------2-----2-----
D-----------------------------------------------------------------
A-----------------------------------------------------------------
E-----------------------------------------------------------------

E-------
B-3-0---
G-----2-
D-------
A-------
E-------

E--------------
B--------------
G--------------
D------------5-
A-5-7-9--4-7---
E-7-9-10-5-----

E-------14----
B-15-------15-
G----14-------
D-------------
A-------------
E-------------
Comments