Alien Ant Farm - 1000 Days Chords & Tabs

 

1000 Days Chords & Tabs

Alien Ant Farm Chords & Tabs

Version: 1 Type: Bass Tab 0 ratings
1 star 2 stars 3 stars 4 stars 5 stars
comments

1000 Days Bass Tab

   
Standard Tuning

Intro-slide

G|----------------|----------------|----------------|----------------|
D|----------------|----------------|----------------|----------------|
A|-------2-0------|-------2-0-3----|-------2-0------|-------2-0-3----|
E|01-2-3-----3-2-1|01-2-3-------2-1|01-2-3-----3-2-1|01-2-3-------2-1|

Verse
G|----------------|----------------|----------------|----------------|
D|----------------|----------------|----------------|----------------|
A|-------2-0------|-------2-0-3----|-------2-0------|-------2-0-3----|
E|01-2-3-----3-2-1|01-2-3-------2-1|01-2-3-----3-2-1|01-2-3-------2-1|

Chorus
G|------------2---|--------4-------|----------------|----------------|
D|--------2-5---5-|----------7-5---|----------------|----------------|
A|3--3-3---------|--------------7-|----------------|----------------|
E|----------------|5--5--5---------|0---0---00---0-2|3---3---33---5--|

G|------------2---|--------4-------|----------------|----------------|
D|--------2-5---5-|----------7-5---|----------------|----------------|
A|3--3-3---------|--------------7-|----------------|----------------|
E|----------------|5--5--5---------|0---0---00---0-2|3---3---33---5--|

Bridge
G|----------------|----------------|----------------|----------------|
D|----------------|-----------9----|----2-------4---|----------------|
A|--------10-12-10|--------9------9|----------------|----------------|
E|8--8--8---------|7--7--7---------|0-0---0-2-2--2-|3-3-3-3-5-5-5-5-|

G|----------------|----------------|----------------|----------------|
D|----------------|-----------9----|----2-------4---|----------------|
A|--------10-12-10|--------9------9|----------------|----------------|
E|8--8--8---------|7--7--7---------|0-0---0-2-2--2-|3-3-3-3-5-5-5-5-|

G|----------------|
D|----------------|
A|----------------|
E|8-8-8-8-7-7-7-77|

G|----------------|----------------|
D|----------------|----------------|
A|-------2-0------|-------2-0-3----|
E|01-2-3-----3-2-1|01-2-3-------2--|

Verse 2
G|----------------|----------------|----------------|----------------|
D|----------------|----------------|----------------|----------------|
A|-------2-0------|-------2-0-3----|-------2-0------|-------2-0-3----|
E|01-2-3-----3-2-1|01-2-3-------2-1|01-2-3-----3-2-1|01-2-3-------2-1|

Chorus 2
G|------------2---|--------4-------|----------------|----------------|
D|--------2-5---5-|----------7-5---|----------------|----------------|
A|3--3-3---------|--------------7-|----------------|----------------|
E|----------------|5--5--5---------|0---0---00---0-2|3---3---33---5--|

G|------------2---|--------4-------|----------------|----------------|
D|--------2-5---5-|----------7-5---|----------------|----------------|
A|3--3-3---------|--------------7-|----------------|----------------|
E|----------------|5--5--5---------|0---0---00---0-2|3---3---33---5--|

Bridge 2
G|----------------|----------------|----------------|----------------|
D|----------------|-----------9----|----2-------4---|----------------|
A|--------10-12-10|--------9------9|----------------|----------------|
E|8--8--8---------|7--7--7---------|0-0---0-2-2--2-|3-3-3-3-5-5-5-5-|
[ Tab from: http://www.guitartabs.cc/tabs/a/alien_ant_farm/1000_days_btab.html ]
G|----------------|----------------|----------------|----------------|
D|----------------|-----------9----|----2-------4---|----------------|
A|--------10-12-10|--------9------9|----------------|----------------|
E|8--8--8---------|7--7--7---------|0-0---0-2-2--2-|3-3-3-3-5-5-5-5-|

G|----------------|----------------|----------------|----------------|
D|----------------|-----------9----|-----------7----|----------------|
A|--------10-12-10|--------9------9|--------7------7|----------------|
E|8--8--8---------|7--7--7---------|5--5--5---------|3-3-3-3-2-2-2-2-|

G|----------------|----------------|----------------|----------------|
D|----------------|----------------|----------------|----------------|
A|----------------|----------------|----------------|----------------|
E|1-1-1-1-1-1-1-1-|-7-7---0-7-7-7\|0--0--0-2-2-3-5-|0--0--0-2-2-3-5-|

G|----------------|----------------|----------------|----------------|
D|----------------|----------------|----------------|----------------|
A|----------------|----------------|----------------|----------------|
E|8----8-8--8-8--|-7-7---0-7-7-7\|0--0--0-2-2-3-5-|0--0--0-2-2-3-5-|

G|----------------|----------------|----------------|----------------|
D|----------------|----------------|----------------|----------------|
A|----------------|----------------|----------------|----------------|
E|2----2-2--2-2--|-7-7---0-7-7-7\|0--0--0-2-2-3-5-|0--0--0-2-2-3-5-|

G|----------------|----------------|----------------|----------------|
D|----------------|----------------|----------------|----------------|
A|----------------|----------------|----------------|----------------|
E|8----8-8--8-8--|-7-7---0-7-7-7\|0--0--0-2-2-3-5-|0--0--0-2-2-3-5-|

G|----------------|----------------|
D|----------------|----------------|
A|----------------|----------------|
E|2-2-2-2---2-2---|--7-7---7-7-7-7-|

G|----------------|
D|--guitar--------|
A|---only---------|
E|-----------3-2-1|

Verse 3
G|----------------|----------------|
D|----------------|----------------|
A|-------2-0------|-------2-0-3----|
E|01-2-3-----3-2-1|01-2-3-------2-1|

G|------------2---|--------4-------|----------------|----------------|
D|--------2-5---5-|----------7-5---|----------------|----------------|
A|3--3-3---------|--------------7-|----------------|----------------|
E|----------------|5--5--5---------|0---0---00---0-2|3---3---33---5--|

G|------------2---|--------4-------|----------------|----------------|
D|--------2-5---5-|----------7-5---|----------------|----------------|
A|3--3-3---------|--------------7-|----------------|----------------|
E|----------------|5--5--5---------|0---0---00---0-2|3---3---33---5--|

Outro
G|----------------|----------------|----------------|----------------|
D|----------------|-----------9----|----------------|----------------|
A|--------10-12-10|--------9------9|----------------|----------------|
E|8--8--8---------|7--7--7---------|0--0--0-2-23-5-|0--0--0-2-2-3-5-|

G|----------------|----------------|----------------|----------------|
D|----------------|-----------9----|----------------|----------------|
A|--------10-12-10|--------9------9|----------------|----------------|
E|8--8--8---------|7--7--7---------|0--0--0-2-23-5-|0--0--0-2-2-3-5-|

G|------------2---|--------4---4---|
D|--------2-5---5-|----------7---7-|
A|3--3--3---------|2--2--2---------|
E|----------------|----------------|

Thanks, please rate it after you learn it.
Comments