Alice In Chains - Would? Chords & Tabs

 

Would? Chords & Tabs

Alice In Chains Chords & Tabs

Version: 6 Type: Tab 0 ratings
1 star 2 stars 3 stars 4 stars 5 stars
comments

Would? Tab

   
Band- Alice In Chains
Song- Would?

Gtr I (Eb Ab Db Gb Bb Eb) - 'Jerry Cantrell - Rhythm dist electric'
Gtr II (Eb Ab Db Gb Bb Eb) - 'Jerry Cantrell - Lead dist electric'


 Intro
  Q=100
 4/4
  Gtr I
                                             <
                                                            \7
  W          E E Q  +E  E E E   W          E Q.   +E   Q   +E
|----------|----------------0-|----------|---3----(3)-(3)--(3)-|
|----------|------------------|-2--------|---5----(5)p=3---(3)-|
|----------|-----2--(2)---2---|----------|---4----(4)-(4)--(4)-|
|----------|---2--------2-----|----------|---------------------|
|----------|------------------|----------|---------------------|
|----------|------------------|----------|---3----(3)-(3)--(3)-|


  Gtr II
    ~~~~~~~~~~~~~~~~~~~~~~~~
    W                   +W
|---------------------|------------|
|---7-----------------|-(7)--------|
|---------------------|------------|
|---------------------|------------|
|---------------------|------------|
|---------------------|------------|
|
| Gtr I
| a Q.   a E +E  E Q    +W
|---------------------|------------|
|---------------------|------------|
|-4h6----4h6-(6)-4-4--|-(4)--------|
|---4------4-(4)-4-5--|-(5)--------|
|---------------------|------------|
|---------------------|------------|


                                      ~~~~~~
    H         Q    E E      +Q   +E   E +Q.      E
|-------------------------|-------------------------|
|--------------------5b7==|=(5)--(5)r---------------|
|-------------------------|-----------6-(6)------4--|
|-------------------------|-------------------------|
|-------------------------|-------------------------|
|-------------------------|-------------------------|
|
| a Q.   a E +E  E Q        +H          +E   E E E
|-------------------------|----------------------0--|
|-------------------------|-------------------------|
|-4h6----4h6-(6)-4-4------|-(4)---------(4)----4----|
|---4------4-(4)-4-5------|-(5)---------(5)-/5------|
|-------------------------|-------------------------|
|-------------------------|-------------------------|


                     ~~~~~~~~~~~~~~~~~~~
    Q     +E   a    +E  +H         +H      H
|--------------------------------|--------------|
|--------------------------------|--------------|
|---4b5===(4)r-4b6==(4)-(4)------|-(4)r---------|
|--------------------------------|--------------|
|--------------------------------|--------------|
|--------------------------------|--------------|
|
| a Q.         a     E  +E  E Q    +W
|--------------------------------|--------------|
|--------------------------------|--------------|
|-4h6----------4h====6--(6)-4-4--|-(4)----------|
|---4----------------4--(4)-4-5--|-(5)----------|
|--------------------------------|--------------|
|--------------------------------|--------------|


                              ~~~~~~~~~
    W                    S  S Q.   +H
|---------------------|-----------------------||
|---------------------|-----------------------||
|---------------------|--2h=4-----------------||
|---------------------|-------4----(4)--------||
|---------------------|-----------------------||
|---------------------|-----------------------||
|
| a Q.   a E +E  E Q    +H         +E   E E E
|---------------------|-----------------------||
|---------------------|-----------------------||
|-4h6----4h6-(6)-4-4--|-(4)--------(4)--------||
|---4------4-(4)-4-5--|-(5)--------(5)------2-||
|---------------------|-------------------2---||
|---------------------|----------------/3-----||


 Verse 1
  Gtrs I, II
  a Q.   a E +E  E Q    +W           a Q.   a E +E  E Q    +H     +E   E E E
|---------------------|------------|---------------------|--------------------|
|---------------------|------------|---------------------|--------------------|
|---------------------|------------|---------------------|--------------------|
|---------------------|------------|---------------------|-----------------2--|
|-2h4----2h4-(4)-2-2--|-(2)--------|-2h4----2h4-(4)-2-2--|-(2)----(2)----2----|
|---2------2-(2)-2-3--|-(3)--------|---2------2-(2)-2-3--|-(3)----(3)-/3------|


  Gtr II
                                                                <
  a Q.   a E +E  E Q    +W           a Q.   a E +E  E Q     Q   Q  +E  +Q.
|---------------------|------------|---------------------|--------------------||
|---------------------|------------|---------------------|--------------------||
|---------------------|------------|---------------------|------0--(0)-(0)----||
|---------------------|------------|---------------------|------0--(0)-(0)----||
|-2h4----2h4-(4)-2-2--|-(2)--------|-2h4----2h4-(4)-2-2--|------2--(2)-(2)----||
|---2------2-(2)-2-3--|-(3)--------|---2------2-(2)-2-3--|------3--(3)-(3)----||
|
| Gtr I
| a Q.   a E +E  E Q    +W           a Q.   a E +E  E Q    +W
|---------------------|------------|---------------------|--------------------||
|---------------------|------------|---------------------|--------------------||
|---------------------|------------|---------------------|--------------------||
|---------------------|------------|---------------------|--------------------||
|-2h4----2h4-(4)-2-2--|-(2)--------|-2h4----2h4-(4)-2-2--|-(2)----------------||
|---2------2-(2)-2-3--|-(3)--------|---2------2-(2)-2-3--|-(3)----------------||


 Chorus
                    ~~~~~~~~~~~~~~~~~~~~~~~~~~~~~~~~~~~~~~~
  a    +Q      +E  +E    +H              +H            +E    Q   E
|--------------------------------------|-----------------------------|
|--------------------------------------|-----------------------------|
|-6b7==(6)-----(6)r(6)---(6)-----------|-(6)-----------(6)---4---6---|
|--------------------------------------|-----------------------------|
|--------------------------------------|-----------------------------|
|--------------------------------------|-----------------------------|
|
| a     E  S S  E   S  S +S  S E E S S    E  S S E S S +S  S E E S S
|--------------------------------------|-----------------------------|
|--------------------------------------|-----------------------------|
|-------4--4-4--4---4--4-(4)---0-0-----|--0--0-0-0-0-0-(0)-0-0-0-0-0-|
|-------4--4-4--4---4--4-(4)---0-0-----|--0--0-0-0-0-0-(0)-0-0-0-0-0-|
|-0h====2--2-2--2---2--2-(2)-0---------|-----------------------------|
|------------------------------3-3-0-2-|--3--3-3-3-3-3-(3)-3-3-3-3-3-|


                            ~~~~~~~~~~~~~~~
  a    +E  S S E E   +E    +Q.         +E  Q     E      +E     S S E E
|------------------------------------|---------------------------7-7-7---|
|------------7-7-7---(7)-------------|-------------------------7---7-7---|
|-6b7==(6)-6---6-6---(6)r==(6)-------|-(6)-4-----6b7====(6)r-------------|
|------------------------------------|-----------------------------------|
|------------------------------------|-----------------------------------|
|------------------------------------|-----------------------------------|
|
| a     E  S S E S S +S  S  E  E S S    E  S S E S    S +S   S E   E S S
|------------------------------------|-----------------------------------|
|------------------------------------|-----------------------------------|
|-------4--4-4-4-4-4-(4)----0--0-----|--0--0-0-0-0----0-(0)--0-0---0-0-0-|
|-------4--4-4-4-4-4-(4)----0--0-----|--0--0-0-0-0----0-(0)--0-0---0-0-0-|
|-0h====2--2-2-2-2-2-(2)-0-----------|-----------------------------------|
|---------------------------3--3-0-2-|--3--3-3-3-3----3-(3)--3-3---3-3-3-|


                  ~~~~~~~~~
    Q        +E  +E    +H
|--------------------------------------|
|--------------------------------------|
|---6b7======(6)r(6)---(6)-------------|
|--------------------------------------|
|--------------------------------------|
|--------------------------------------|
|
| a E    S S  E   S  S +S  S E E S S
|--------------------------------------|
|--------------------------------------|
|---4----4-4--4---4--4-(4)---0-0-------|
|---4----4-4--4---4--4-(4)---0-0-------|
|-0h2----2-2--2---2--2-(2)-0-----------|
|----------------------------3-3-0-2---|


   ~~~~~~~~~~~~~~~~~                                        ~~~~~~~~
  +H            +E    Q   E       E    +E    E E   +Q      +Q
|-----------------------------|--------------7---------------------|
|-----------------------------|--------------7---------------------|
|-(6)-----------(6)---4---6---|---6b7==(6)-----6r==(6)-----(6)-----|
|-----------------------------|------------------------------------|
|-----------------------------|------------------------------------|
|-----------------------------|------------------------------------|
|
|  E  S S E S S +S  S E E S S   a E     S  S E S S +S  S E  E  S S
|-----------------------------|------------------------------------|
|-----------------------------|------------------------------------|
|--0--0-0-0-0-0-(0)-0-0-0-0-0-|---4-----4--4-4-4-4-(4)---0--0------|
|--0--0-0-0-0-0-(0)-0-0-0-0-0-|---4-----4--4-4-4-4-(4)---0--0------|
|-----------------------------|-0h2-----2--2-2-2-2-(2)-0-----------|
|--3--3-3-3-3-3-(3)-3-3-3-3-3-|--------------------------3--3--0-2-|


 ~~~~~~
  +H..                     S S
|-------------------------------||
|-------------------------------||
|-(6)----------------------2h4--||
|-------------------------------||
|-------------------------------||
|-------------------------------||
|
|  E   S S E S S +S  S E E S S
|-------------------------------||
|-------------------------------||
|--0---0-0-0-0-0-(0)-0-0-0-0-0--||
|--0---0-0-0-0-0-(0)-0-0-0-0-0--||
|-------------------------------||
|--3---3-3-3-3-3-(3)-3-3-3-3-3--||


         ~~~~~~~~~~~~~~~~~~~~~~~~~~~~~~
    Q   +Q      +E  +E     +Q     +W
|-------------------------------|-------------|
|-------------------------------|-------------|
|-------------------------------|-------------|
|---4---(4)-----(4)-(4)b5==(4)--|-(4)r--------|
|-------------------------------|-------------|
|-------------------------------|-------------|
|
|                                             G
| a Q.      a E +E   E      Q     +W
|-------------------------------|-------------|
|-------------------------------|-------------|
|-4h6-------4h6-(6)--4------4---|-(4)---------|
|---4---------4-(4)--4------5---|-(5)---------|
|-------------------------------|-------------|
|-------------------------------|-------------|


    W                    W
|---------------------|--------------------|
|---------------------|--------------------|
|---------------------|--------------------|
|---------------------|--------------------|
|---------------------|--------------------|
|---------------------|--------------------|
|
|trs I, II
| a Q.   a E +E  E Q    +H     +E   E E E
|---------------------|-----------------0--|
|---------------------|--------------------|
|-4h6----4h6-(6)-4-4--|-(4)----(4)----4----|
|---4------4-(4)-4-5--|-(5)----(5)-/5------|
|---------------------|--------------------|
|---------------------|--------------------|


  Gtrs I, II
  a Q.   a E +E  E Q    +W           a Q.   a E +E  E Q    +H     +E   E E E
|---------------------|------------|---------------------|--------------------||
|---------------------|------------|---------------------|--------------------||
|-4h6----4h6-(6)-4-4--|-(4)--------|-4h6----4h6-(6)-4-4--|-(4)----(4)---------||
|---4------4-(4)-4-5--|-(5)--------|---4------4-(4)-4-5--|-(5)----(5)------2--||
|---------------------|------------|---------------------|---------------2----||
|---------------------|------------|---------------------|------------/3------||


 Verse 2
  a Q.   a E +E  E Q    +W           a Q.   a E +E  E Q    +H     +E   E E E
|---------------------|------------|---------------------|--------------------|
|---------------------|------------|---------------------|--------------------|
|---------------------|------------|---------------------|--------------------|
|---------------------|------------|---------------------|-----------------2--|
|-2h4----2h4-(4)-2-2--|-(2)--------|-2h4----2h4-(4)-2-2--|-(2)----(2)----2----|
|---2------2-(2)-2-3--|-(3)--------|---2------2-(2)-2-3--|-(3)----(3)-/3------|


  Gtr II
                                                                <
  a Q.   a E +E  E Q    +W           a Q.   a E +E  E Q     Q   Q  +E  +Q.
|---------------------|------------|---------------------|--------------------||
|---------------------|------------|---------------------|--------------------||
|---------------------|------------|---------------------|------0--(0)-(0)----||
|---------------------|------------|---------------------|------0--(0)-(0)----||
|-2h4----2h4-(4)-2-2--|-(2)--------|-2h4----2h4-(4)-2-2--|------2--(2)-(2)----||
|---2------2-(2)-2-3--|-(3)--------|---2------2-(2)-2-3--|------3--(3)-(3)----||
|
| Gtr I
| a Q.   a E +E  E Q    +W           a Q.   a E +E  E Q    +W
|---------------------|------------|---------------------|--------------------||
|---------------------|------------|---------------------|--------------------||
|---------------------|------------|---------------------|--------------------||
|---------------------|------------|---------------------|--------------------||
|-2h4----2h4-(4)-2-2--|-(2)--------|-2h4----2h4-(4)-2-2--|-(2)----------------||
|---2------2-(2)-2-3--|-(3)--------|---2------2-(2)-2-3--|-(3)----------------||

[ Tab from: http://www.guitartabs.cc/tabs/a/alice_in_chains/would_tab_ver_6.html ]
 Chorus
                                 ~~~~~~~~~~~~~~~~~~~~~~
    E    +Q.          Q.       S S   +H            +E    Q   E
|----------------------------------|-----------------------------|
|----------------------------------|-----------------------------|
|---6b7==(6)r=========6--------6-6-|-(6)-----------(6)---4---6---|
|----------------------------------|-----------------------------|
|----------------------------------|-----------------------------|
|----------------------------------|-----------------------------|
|
| a E     S  S E S S +S  S E E S S    E  S S E S S +S  S E E S S
|----------------------------------|-----------------------------|
|----------------------------------|-----------------------------|
|---4-----4--4-4-4-4-(4)---0-0-----|--0--0-0-0-0-0-(0)-0-0-0-0-0-|
|---4-----4--4-4-4-4-(4)---0-0-----|--0--0-0-0-0-0-(0)-0-0-0-0-0-|
|-0h2-----2--2-2-2-2-(2)-0---------|-----------------------------|
|--------------------------3-3-0-2-|--3--3-3-3-3-3-(3)-3-3-3-3-3-|


                                  ~~~~~~~~~~~~~~~~~~~~~~~~~~~
    E    +E     E E      +E    E +Q        +H            +E    Q   E
|----------------------------------------|-----------------------------|
|---------------7------------------------|-----------------------------|
|---6b7==(6)r-----6b7====(6)---6r(6)-----|-(6)-----------(6)---4---6---|
|----------------------------------------|-----------------------------|
|----------------------------------------|-----------------------------|
|----------------------------------------|-----------------------------|
|
| a E     S   S E S    S +S  S E  E  S S    E  S S E S S +S  S E E S S
|----------------------------------------|-----------------------------|
|----------------------------------------|-----------------------------|
|---4-----4---4-4-4----4-(4)---0--0------|--0--0-0-0-0-0-(0)-0-0-0-0-0-|
|---4-----4---4-4-4----4-(4)---0--0------|--0--0-0-0-0-0-(0)-0-0-0-0-0-|
|-0h2-----2---2-2-2----2-(2)-0-----------|-----------------------------|
|------------------------------3--3--0-2-|--3--3-3-3-3-3-(3)-3-3-3-3-3-|


                    ~~~~~~~~~        ~~~~~~~~~~~~~~~~~~~~~~~~
  a    +Q      +E  +E    +Q.       S S   +E  S S +E  S S +E    Q   E
|--------------------------------------|-------------------------------|
|--------------------------------------|-------------------------------|
|-6b7==(6)-----(6)r(6)---(6)-------6-6-|-(6)-6-6-(6)-6-6-(6)---4---6---|
|--------------------------------------|-------------------------------|
|--------------------------------------|-------------------------------|
|--------------------------------------|-------------------------------|
|
| a     E  S S  E   S  S +S  S E E S S    E  S S  E  S S +S  S E E S S
|--------------------------------------|-------------------------------|
|--------------------------------------|-------------------------------|
|-------4--4-4--4---4--4-(4)---0-0-----|--0--0-0--0--0-0-(0)-0-0-0-0-0-|
|-------4--4-4--4---4--4-(4)---0-0-----|--0--0-0--0--0-0-(0)-0-0-0-0-0-|
|-0h====2--2-2--2---2--2-(2)-0---------|-------------------------------|
|------------------------------3-3-0-2-|--3--3-3--3--3-3-(3)-3-3-3-3-3-|


    E    +E    E S S  E    Q.         +W
|----------------7-7--7----7--------|-(7)--------------------------|
|--------------7-7-7--7----7--------|-(7)--------------------------|
|---6b7==(6)---------------6--------|-(6)r-------------------------|
|-----------------------------------|------------------------------|
|-----------------------------------|------------------------------|
|-----------------------------------|------------------------------|
|
| a E     S  S E S S +S  S E  E S S    E   S S E S S +S  S E E S S
|-----------------------------------|------------------------------|
|-----------------------------------|------------------------------|
|---4-----4--4-4-4-4-(4)---0--0-----|--0---0-0-0-0-0-(0)-0-0-0-0-0-|
|---4-----4--4-4-4-4-(4)---0--0-----|--0---0-0-0-0-0-(0)-0-0-0-0-0-|
|-0h2-----2--2-2-2-2-(2)-0----------|------------------------------|
|--------------------------3--3-0-2-|--3---3-3-3-3-3-(3)-3-3-3-3-3-|


 Guitar Solo
                                ~~~~~~~~~~~~~~~~~~~~~~~~~~~~
   H.                           Q        +H             +E    E     +E    E
|-------------------------------------|---------------------------------------|
|-------------------------------------|----------------------------------10---|
|------------------------------11-----|-(11)-----------(11)---9b11==(9)r------|
|-11tr12------------------------------|---------------------------------------|
|-------------------------------------|---------------------------------------|
|-------------------------------------|---------------------------------------|
|
|  PM-----------------------------------------------------------------------|
|  S     S S S S S S S +S  S E  E S S     E  E S S S S   S  S E      E    S S
|-------------------------------------|---------------------------------------|
|-------------------------------------|---------------------------------------|
|-------------------------------------|---------------------------------------|
|-------------------------------------|---------------------------------------|
|-------------------------------------|---------------------------------------|
|--0h====2-2-2-2p0-0-0-(0)-2-3--3-3-3-|---3--0-0-0-0-3p==0--0-0------0----0-0-|


              ~~~~                ~~~~~~~~~~~~~~~~~~~~~~~~~~
  E    S  S  +Q        +E    S  S Q       +H            +E     Q.
|---------------------------------------|-------------------------------|
|---------------------------------------|-------------------------------|
|---------------------------------------|-------------------------------|
|-9---11-11-(11)------(11)---9h11-9-----|-(9)-----------(9)-------------|
|---------------------------------------|---------------------12--------|
|---------------------------------------|-------------------------------|
|
| PM---------------------------------------------------------------------
| S S  S  S   S S S S  +S  S E    E S S    E  E S S S S  S  S  E  E S S
|---------------------------------------|-------------------------------|
|---------------------------------------|-------------------------------|
|---------------------------------------|-------------------------------|
|---------------------------------------|-------------------------------|
|---------------------------------------|-------------------------------|
|-0h2--2--2---2p0-0-0--(0)-2-3----3-3-3-|--3--0-0-0-0-3p=0--0--0--0-0-0-|


                                              ~
    a       +H                +E     +E  S  S E
|--------------------------------------------------|
|--------------------------------------------------|
|--------------------------------------------------|
|--------------------------------------------------|
|-(12)b14==(12)--------------(12)r==(12)-9h12-9----|
|--------------------------------------------------|
|
|-----------------------------------------------|
|            S S S S S S S S  +S  S   E  E    S S
|--------------------------------------------------|
|--------------------------------------------------|
|--------------------------------------------------|
|--------------------------------------------------|
|--------------------------------------------------|
|------------0h2-2-2-2p0-0-0--(0)-2---3--3----3-3--|


   ~~~~~~~~~~~~~~~~~
  +H            +E    Q   S S
|-----------------------------|
|-----------------------------|
|-----------------------------|
|-----------------------------|
|-(9)-----------(9)---9---7h9-|
|-----------------------------|
|
|  PM--------------------------
|  E  E S S S S  S  S E E S S
|-----------------------------|
|-----------------------------|
|-----------------------------|
|-----------------------------|
|-----------------------------|
|--3--0-0-0-0-3p=0--0-0-0-0-0-|


  ~~~~~~~~~~~~~~~~~~~~        ~~~~~~~~
  H               +E    S S E E     W
|---------------------------------|---------------------------||
|---------------------------------|---------------------------||
|---------------------------------|---------------------------||
|---------------------------------|---------------------------||
|---------------------------------|---------------------------||
|-9---------------(9)---7h9p7-7---|-7-------------------------||
|
|---------------------------------------------------------|
| S S S S S S S S +S  S E   E S S   E E S S S S S S E E S S
|---------------------------------|---------------------------||
|---------------------------------|---------------------------||
|---------------------------------|---------------------------||
|---------------------------------|---------------------------||
|---------------------------------|---------------------------||
|-0h2-2-2-2p0-0-0-(0)-2-3---3-3-3-|-3-0-0-0-0-3p0-0-0-0-0-0---||


 Chorus
                    ~~~~~~~~~~~~~~~~~~~~~~~~~~~~~~~~~~~~~~~
    E    +E    +E  +E    +H              +H            +E    Q   E
|--------------------------------------|-----------------------------|
|--------------------------------------|-----------------------------|
|---6b7==(6)---(6)r(6)---(6)-----------|-(6)-----------(6)---4---6---|
|--------------------------------------|-----------------------------|
|--------------------------------------|-----------------------------|
|--------------------------------------|-----------------------------|
|
| a E     S  S  E   S  S +S  S E E S S    E  S S E S S +S  S E E S S
|--------------------------------------|-----------------------------|
|--------------------------------------|-----------------------------|
|---4-----4--4--4---4--4-(4)---0-0-----|--0--0-0-0-0-0-(0)-0-0-0-0-0-|
|---4-----4--4--4---4--4-(4)---0-0-----|--0--0-0-0-0-0-(0)-0-0-0-0-0-|
|-0h2-----2--2--2---2--2-(2)-0---------|-----------------------------|
|------------------------------3-3-0-2-|--3--3-3-3-3-3-(3)-3-3-3-3-3-|


                                ~~
  a    +E  S S  E E      +E     Q.
|----------------------------------------|
|----------7-7--7------------------------|
|-6b7==(6)-6-6r---6b7====(6)r---6--------|
|----------------------------------------|
|----------------------------------------|
|----------------------------------------|
|
| a     E  S S  E S    S +S   S E  E S S
|----------------------------------------|
|----------------------------------------|
|-------4--4-4--4-4----4-(4)----0--0-----|
|-------4--4-4--4-4----4-(4)----0--0-----|
|-0h====2--2-2--2-2----2-(2)--0----------|
|-------------------------------3--3-0-2-|


   ~~~~~~~~~~~~~~~~~
  +H            +E    Q   E
|-----------------------------|
|-----------------------------|
|-(6)-----------(6)---4---6---|
|-----------------------------|
|-----------------------------|
|-----------------------------|
|
|  E  S S E S S +S  S E E S S
|-----------------------------|
|-----------------------------|
|--0--0-0-0-0-0-(0)-0-0-0-0-0-|
|--0--0-0-0-0-0-(0)-0-0-0-0-0-|
|-----------------------------|
|--3--3-3-3-3-3-(3)-3-3-3-3-3-|


                  ~~~~~~~~~~~~~~~~~~~~~~~~~~~~~~~~~~~~~~~
    E    +E    E +E    +H              +H            +E    Q   E
|------------------------------------|------------------------------|
|------------------------------------|------------------------------|
|---6b7==(6)---6r(6)---(6)-----------|-(6)-----------(6)---4---6----|
|------------------------------------|------------------------------|
|------------------------------------|------------------------------|
|------------------------------------|------------------------------|
|
| a E     S  S E  S  S +S  S E E S S    E  S S E S S +S  S E E S S
|------------------------------------|------------------------------|
|------------------------------------|------------------------------|
|---4-----4--4-4--4--4-(4)---0-0-----|--0--0-0-0-0-0-(0)-0-0-0-0-0--|
|---4-----4--4-4--4--4-(4)---0-0-----|--0--0-0-0-0-0-(0)-0-0-0-0-0--|
|-0h2-----2--2-2--2--2-(2)-0---------|------------------------------|
|----------------------------3-3-0-2-|--3--3-3-3-3-3-(3)-3-3-3-3-3--|


                                     ~~~~~~~~~~
    E    +E     E E      +E    +Q    E     +W
|----------------------------------------|-----------------------------||
|---------------7------------------------|-----------------------------||
|---6b7==(6)r-----6b7====(6)r==(6)---6---|-(6)-------------------------||
|----------------------------------------|-----------------------------||
|----------------------------------------|-----------------------------||
|----------------------------------------|-----------------------------||
|
| a E     S   S E S    S +S  S  E  E S S    E  S S E S S +S  S E E S S
|----------------------------------------|-----------------------------||
|----------------------------------------|-----------------------------||
|---4-----4---4-4-4----4-(4)----0--0-----|--0--0-0-0-0-0-(0)-0-0-0-0-0-||
|---4-----4---4-4-4----4-(4)----0--0-----|--0--0-0-0-0-0-(0)-0-0-0-0-0-||
|-0h2-----2---2-2-2----2-(2)-0-----------|-----------------------------||
|-------------------------------3--3-0-2-|--3--3-3-3-3-3-(3)-3-3-3-3-3-||


   Outro
    Gtrs I, II
    Q  E S S E Q  S S   E E E S S S S E S S S S
||--------------------|-------------------------|
||o-3--3---1-1-1------|-------------------------|
||--2--2---2-2-2------|-------------------------|
||--0--0---0-0-0------|-----6---------6---------|
||o-0--0-x------------|-6-6-6-6-6-6-6-6-6-6-6---|
||-------x--------2s4-|-4-4-4-4-4-4-4-4-4-4-4-0-|


                            PM------------------------|
  E E E S S S S E S S S S   E E S S S S S S S S S S S S  4x
|-------------------------|------------------------------||
|-------------------------|-----------------------------o||
|-------------------------|------------------------------||
|-----5---------5---------|------------------------------||
|-5-5-5-5-5-5-5-5-5-5-5---|-2-2-2-4-2-5-2-0-4-0-2-0-4-0-o||
|-3-3-3-3-3-3-3-3-3-3-3-0-|-0-0-0-0-0-0-0-0-0-0-0-0-0-0--||


  ~     ~       ~     ~       ~
  Q  Q  Q  Q    Q  Q  Q  Q    H    H
|-------------|-------------|-----------*|
|-6-----6-----|-6-----6-----|-6---------*|
|-5-----5-----|-5-----5-----|-5---------*|
|-4-----4-----|-4-----4-----|-4---------*|
|-5-----5-----|-5-----5-----|-5---------*|
|-------------|-------------|-----------*|





Duration Legend
---------------
W - whole; H - half; Q - quarter; E - 8th; S - 16th; T - 32nd; X - 64th; a - acciaccatura
+ - note tied to previous; . - note dotted; .. - note double dotted
Uncapitalized letters represent notes that are staccato (1/2 duration)
Irregular groupings are notated above the duration line
Duration letters will always appear directly above the note/fret number it represents the
duration for.  Duration letters with no fret number below them represent rests.  Multi-
bar rests are notated in the form Wxn, where n is the number of bars to rest for.  Low
melody durations appear below the staff

Tablature Legend
----------------
 h   - hammer-on
 p   - pull-off
 b   - bend
 pb  - pre-bend
 r   - bend release (if no number after the r, then release immediately)
 /\  - slide into or out of (from/to "nowhere")
 s   - legato slide
 S   - shift slide
 - natural harmonic
[n]  - artificial harmonic
n(n) - tapped harmonic
 ~   - vibrato
 tr  - trill
 T   - tap
 TP  - trem. picking
 PM  - palm muting
\n/  - tremolo bar dip; n = amount to dip
 \n  - tremolo bar down
 n/  - tremolo bar up
/n\  - tremolo bar inverted dip
 =   - hold bend; also acts as connecting device for hammers/pulls
 <> - volume swell (louder/softer)
 x   - on rhythm slash represents muted slash
 o   - on rhythm slash represents single note slash

Misc Legend
-----------
 |  - bar
||  - double bar
||o - repeat start
o|| - repeat end
*|  - double bar (ending)
 :  - bar (freetime)
 $  - Segno
 &  - Coda
Tempo markers -  = BPM(8/16=s8/s16), where s8 = swing 8ths, s16 = swing 16ths
Comments