Alice In Chains - Would? Chords & Tabs

 

Would? Chords & Tabs

Alice In Chains Chords & Tabs

Version: 2 Type: Tab 0 ratings
1 star 2 stars 3 stars 4 stars 5 stars
comments

Would? Tab

   
Song: Would?
Band: Alice in Chains


Down half a step

Intro
e--------------------------------------------------|
B----------------------------------------------5---|
G--4h6--4h6---4--4--------4h6--4h6--4--4-----4-----|
D--4----4-----4--5--------4----4----4--5---5-------|
A--------------------------------------------------|
E--------------------------------------------------|

Verse
e--------------------------------------------------|
B--------------------------------------------------|
G--------------------------------------------------|
D----------------------------------------------2---|
A--2h4--2h4---2--2--------2h4--2h4--2--2-----2-----|
E--2----2-----2--3--------2----2----2--3---3-------|
[ Tab from: http://www.guitartabs.cc/tabs/a/alice_in_chains/would_tab_ver_2.html ]
Chorus
e------------------------3--3-------3---3---3--3---3---|
B------------------------3--3-------3---3---3--3---3---|
G-4---4--4---4--4---2----0--0-------0---0---0--0---0---|
D-4---4--4---4--4---2----0--0-------0---0---0--0---0---|
A-2---2--2---2--2---0----2--2-------2---X---2--2---2---|
E------------------------3--3-0--2--3---3---3--3---3---|

  Into        the flood again     Same old trip it was
       back             then
  So I made a big        mistake       try to see it 
  once   my                   way.

Outro
  D       D7      G#                     G 
e----------------------------------------------------------------
B-3--3----6--6-6-----4--4------------------------3---------------
G-2--2-X--5--5-5--5--5--5--5--------5---------4--4--4--4--4------
D-0--0-X--4--4-4--6--6--6--6-6-6-6--6----5--5-5--5--5--5--5--5---
A-0--0-X--5--5-5--6--6--6--6-6-6-6--6----5--5-5--5--5--5--5--5---
E-----------------4--4--4--4-4-4-4--4-0--3--3-3--3--3--3--3--3---
          Am I  Wrong                    Have I run too    far
  E
------------------------------|  
------------------------------|
--1--1--1-1--------------1----|
--2--2--2-2--2--2--2--2--2----|
--2--2--2-2--2--2--2--2--2----|
--0--0--0-0--0--0--0--0--0----|
   to get home


D7 D7 D7   D7    D7
If I would could you?


Comments