Alice In Chains - What The Hell Have I Chords & Tabs

 

What The Hell Have I Chords & Tabs

Alice In Chains Chords & Tabs

Version: 5 Type: Tab

What The Hell Have I Tab

e-------------------------------------------------------------|
b-----------------------------------------------------------3-|
g-2b-----------------------------2-2b-----------------------2-|
d----0--------------2b---------3-------0---------------2b---0-|
a-------4----0-1-0----------3--------------4-----0-1-0--------|
e----------3-------------1---------------------3--------------|
                     ^ intro
[ Tab from: http://www.guitartabs.cc/tabs/a/alice_in_chains/what_the_hell_have_i_tab_ver_5.html ]
e---------------------------------------|
b-----------3-3-----------------3-3-----|
g-----------2-2-2---------------2-2-2---|
d-----------0-0-2---------------0-0-2---|   its hard to start things over
a-2-3-2-3-2-0-0-0-2-3-2-3-2-0---0-0-0---|     you can feel the fire around us
e-0-1-0-----------0-1-0-----------------|        all the time.


e-17------------------------------------------------------------|
b----17--------15--------13------10------8------6-----3s5--10b--|
g--------14-12-----12-10----10-9-----9-7----7-5---5-3-----------| solo.listen
d---------------------------------------------------------------| for timing
a---------------------------------------------------------------|
e---------------------------------------------------------------|

            have fun,this tab is correct