Alice In Chains - What The Hell Have I Chords & Tabs

 

What The Hell Have I Chords & Tabs

Alice In Chains Chords & Tabs

Version: 4 Type: Tab 0 ratings
1 star 2 stars 3 stars 4 stars 5 stars
comments

What The Hell Have I Tab

e------------------------------
b------------------------------
g-2(b)---------------------2---
d------------------------3-----
a-----5-4---0--1--0----3-------
E---------3----------1---------
[ Tab from: http://www.guitartabs.cc/tabs/a/alice_in_chains/what_the_hell_have_i_tab_ver_4.html ]
e------------------------------
b------------------------------
g-2(b)--------------------2----
d--------------------2(b)-0----
a------5-4---0--1--0-----------
E----------3-------------------

Just adjusting From what I have seen..I got this from guitar world magazine and 
Jerry showed some of his guitar tricks in it.
Comments