Alice In Chains - What The Hell Have I Chords & Tabs

 

What The Hell Have I Chords & Tabs

Alice In Chains Chords & Tabs

Version: 2 Type: Tab 0 ratings
1 star 2 stars 3 stars 4 stars 5 stars
comments

What The Hell Have I Tab

Alice in chains,What the Hell have I?.
Tabbed by DarkRaven@Wanadoo.fr.
  
tune down 1/2 step
intro+verse
-----------------------------------------------------
-------------------------------------------2---------
2---------------------2---2----------------3---------
--0-----------2-----3-------0----------2---0---------
---4--0-1-0--------3---------4--0-1-0----------------
-----3----------1--------------3---------------------
[ Tab from: http://www.guitartabs.cc/tabs/a/alice_in_chains/what_the_hell_have_i_tab_ver_2.html ]
chorus
------------------------------------------------------
------------------------3--3----------------------3---
------------------------2--2--2-------------------2---
------------------------0--0--2-------------------0---
----2--------2----3--2--------0---2-----2--3-2-0-----
----0-----1--0--------------------0--1--0------------

solo
------------------------------------------------------
------------------------------------------------------
22----------------------------------------------------
--21-----19------17-----14-----12--12/10-10-10/7-7/9--
----19/17---17/15--15/14--14/12----12/10----10/7-7----
------------------------------------------------------

outro
----------------------------------1-------------------
10-----8-----------10-------------1-------------------
--9--------9------------9---------2-------------------
----7---------7------------7------3-------------------
-----------------------------------------------
------------------------------------------------------ 
:: Ultimate Guitar Archive :: 
http://www.ultimate-guitar.com 

Comments