Alice In Chains - What The Hell Have I Chords & Tabs

 

What The Hell Have I Chords & Tabs

Alice In Chains Chords & Tabs

Version: 1 Type: Bass Tab 0 ratings
1 star 2 stars 3 stars 4 stars 5 stars
comments

What The Hell Have I Bass Tab

name=mike gomes
band=alice in chains
song=what the hell have i.....
inst_type=Bass
body=  verse/intro 

g-------------------------------------------------- 
d----8b--7--------------------------------------5- 
a------------7--5---------------5b--4---4--6----- 
E------------------4--5--6--5--------------------- 
[ Tab from: http://www.guitartabs.cc/tabs/a/alice_in_chains/what_the_hell_have_i_btab.html ]
g-------------------------------------------------- 
d----8b--7---------------------------------------- 
a------------7--5----------------5b--4------------ 
E------------------4--5--6--5--------------------- 

chorus 

g-------------------------------------------- 
d-------------------------------------------- 
a-------------3--2--0----5--5--5----------- 
E--0--1--0------------------------5--5--5-- 

g---------------------------------- 
d---------------------------------- 
a----------3--2--0----5--5------- 
E--0-1-0--------------------5---- 
  

Well that's it, have fun its a great song so learn it. 
any questions? bassking@guitarsrule.com 
this song is on the "Nothing Safe" CD 
  
 
 
  
Comments