Alice In Chains - We Die Young Chords & Tabs

 

We Die Young Chords & Tabs

Alice In Chains Chords & Tabs

Version: 1 Type: Bass Tab 0 ratings
1 star 2 stars 3 stars 4 stars 5 stars
comments

We Die Young Bass Tab

Song: We Die Young
Artist: Alice in Chains
Album: Facelift
Tabbed by Freak
"Tune E string down 1 step to D"

intro
G|-------------
D|-------------
A|-------------
E|-12\---------

riff 1
G|---------------------------------
D|---------------------------------
A|---------------------------------
E|-3-00-5h6p5-3-00-3-00-3-0-5--0---

G|---------------------------------
D|---------------------------------
A|---------------------------------
E|-3-00-5h6p5-3-00-3-0-5h6p5-3-----

G|-------------------------------------------------------------
D|-------------------------------------------------------------
A|-------------------------------------------------------------
E|-3-00-3-00-3-00-3-00-3-0-5-0-3-00-5h6p5-3-00-3-00-3-0-5------

riff 2
G|---------------|--------------------------
D|*-------------*|--------------------------
A|*-------------*|--------------------------
E|--0-0-0-0-0-0--|-3-5-6-5-3-0-3------------
[ Tab from: http://www.guitartabs.cc/tabs/a/alice_in_chains/we_die_young_btab.html ]
G|---------------|--------------------------
D|*-------------*|--------------------------
A|*-------------*|--------------------------
E|--0-0-0-0-0-0--|-0-3-0-3-0-5--------------

riff 3
G|-----------------------|-------------------
D|*---------------------*|-------------------
A|*---------------------*|-------------------
E|--0-3-5-6-5-3-0-000000-|-3-3/5-------------

riff 4
G|-------------------------------------------
D|-------------------------------------------
A|-------------------------------------------
E|-3-00-5h6p5-3-00-3-00-3-0-5-0--------------

G|-------------------------------------------
D|-------------------------------------------
A|-------------------------------------------
E|-3-00-5h6p5-3-00-3-0-5h6p5-3---------------

G|-------------------------------------------
D|-------------------------------------------
A|-------------------------------------------
E|-3-00-3-00-3-00-3-00-3-0-5h6p5-3-----------

how to play
riff 1 x1
riff 2 x2
riff 1 x1
riff 2 x2
riff 3 x2
riff 1 x2
riff 2 x2
riff 4 x1
Any questions/corrections/suggestions? Mail me.
freakinbass@galoforte.com.br
Comments