Alice In Chains - Them Bones Chords & Tabs

 

Them Bones Chords & Tabs

Alice In Chains Chords & Tabs

Version: 5 Type: Tab 0 ratings
1 star 2 stars 3 stars 4 stars 5 stars
comments

Them Bones Tab

Alice in chains
Them Bones Solo
Transcribed by justin miller

*note - this is my first time tabbing a solo, and its pretty hard, but
        it is fun. I think i did a pretty good job considering it took
        me like two hours. Hope you enjoy!!! Send comments, or 
        corrections to: lordabortion929@aol.com   thanks!

KEY:
pm--| = Palm mute everthing from pm to |
v = vibrato
#b(#) = bend first note to pitch of note in parenthesis
#b(#)r(#) = bend and relese the ame way as bend
x = mute with palm an left hand fingers by touching string lightly
p = pull off
h = hammer on

    pm-----|    pm-----|    pm-----|
--------------------------------------------------------------
--------------------------------------------------------------
--------------------------------------------------------------
--------------------------------------------------------------
-------------------------------------11-x-10-x-9v-------------
-12-12-12-12-13-13-13-13-14-14-14-14--------------12-10-12----
 
 pm                         hold
--------------------------------------------------------------
--------------------------------------------------------------
------------------12b(13)-12b---(14)-12p10p9------------------
---------10-12p10----------------------------12v-12p10p9------
---10/12-------------------------------------------------12v--
-0------------------------------------------------------------


--------------------------------------------------------------
--------------------------------------------------------------
---------------------------17-17-17b(18)-15-14-15-14----------
---------------------14vvv---------------------------12vv-----
-12p11p10-12-10-8vvv------------------------------------------
--------------------------------------------------------------
[ Tab from: http://www.guitartabs.cc/tabs/a/alice_in_chains/them_bones_tab_ver_5.html ]
 pm--------------|        
--------------------------------------------------------------
--------------------------------------------------------------
-------------------14h15-14vvv-14-15-17-17b(18)-17-15-17-15---
----------12-13-12--------------------------------------------
-12-13-14-----------------------------------------------------
--------------------------------------------------------------
                    
                    /do all this under the 2nd guitar's solo--
                    \/hold a sec              pm--------------
--------------------------------------------------------------
--------------------------------------------------------------
-14vvv-12-14-15-15b(17)r(15)----------------------------------
--------------------------------------------------------------
----------------------------------------------0-0-0-0-1-1-1-1-
--------------------------------0(dive w/bar)-0-0-0-0-1-1-1-1-

-------\
------|
--------------------------------------------------------------
--------------------------------------------------------------
--------------------------------------------------------------
-------3------------------------------------------------------
-2-2-2-3------------------------------------------------------
-2-2-2-3------------------------------------------------------

2nd Guitar's Solo
------------------------------------20b(22)-20-18-20-18-16----
-20b(22)-20-18-20-18-16-16b(18)-15v---------------------------
--------------------------------------------------------------
--------------------------------------------------------------
--------------------------------------------------------------
--------------------------------------------------------------


-17b(18)-16-17-------------16p15p13-16p15p13-16p15p13-16p15p13
---------------17-18-15vv-------------------------------------
--------------------------------------------------------------
--------------------------------------------------------------
--------------------------------------------------------------
--------------------------------------------------------------

-16p15p13-16p15p13-16p15p13-16b(18)-15-13-15-13---------------
------------------------------------------------15vvv---------
--------------------------------------------------------------
--------------------------------------------------------------
--------------------------------------------------------------
--------------------------------------------------------------

??????This is wrong... but it's my best interpretation??????
        pm-------------|                pm--|    pm--|
--------------------------------------------------------------
--------------------------------------------------------------
--------------------------------------------------------------
-17b(19)r(19)r(19)r(18)r(17)-15-17-15-17----------------------
----------------------------------------20-19-20-19-19-20-17\-
--------------------------------------------------------------

thats all of it
Comments