Alice In Chains - Them Bones Chords & Tabs

 

Them Bones Chords & Tabs

Alice In Chains Chords & Tabs

Version: 3 Type: Tab 2 ratings
1 star 2 stars 3 stars 4 stars 5 stars
comments

Them Bones Tab

   
Artist:Alice in Chains
Song:Them Bones



Tuning Db Ab Db Gb Bb Eb  

Intro:
eb|-----------------------------------------||
Bb|10---------------------------------------||
Gb|10---------------------------------------||
Db|10---------------------------------------||
Ab|-0--0--0--1--1--1--1--2--2--2--3--0--0---||
Db|-0--0--0--1--1--1--1--2--2--2--3--0--0---||
pm     ......................................

eb|----------------------------------------|
Bb|-10-------------------------------------|
Gb|-10-------------------------------------|
Db|-10-------------------------------------|
Ab|--0----0--0--1--1--1--1--2--2--2--3-----|
Db|--0----0--0--1--1--1--1--2--2--2--3-----|
pm        ................................

Verses:
eb|---------------------------------||
Bb|---3-----------------------------||
Gb|---2-----------------------------||
Db|---0------1-------2.------3------||
Ab|---0------1-------2.------3------||
Db|---0------1-------2.------3------||

eb|---------------------------------|
Bb|---3-----------------------------|
Gb|---2-----------------------------|
Db|---0------1-------2.------3---0--|
Ab|---0------1-------2.------3---0--|
Db|---0------1-------2.------3---0--|

Chorus:
eb|-----------------------------------------------|
Bb|-------------------------------------------10--|
Gb|--------------------------------------------9--|
Db|--------------------------------------9/11-----|
Ab|--/8-----8-----8--8--8--7---7--7--7------------|
Db|--/8-----8-----8--8--8--7---7--7--7------------|

eb|---------------------------------------------|-------|
Bb|---------------------------------------------|-------|
Gb|---------------------------------------------|-------|
Db|---------------------------------------------|-------|
Ab|--10---10-----10--10--10--9----9--9--9--9--8-|--8--0-|
Db|--10---10-----10--10--10--9----9--9--9--9--8-|--8--0-|
                                                   ^  ^ 
						

                    Solo
eb|------------------------------------------------------------|
Bb|------------------------------------------------------------|
Gb|-------------------------------4*------------------5---12^--|
Db|-3-------3-------5-----6-----5---3^-----------5/7-----------|
Ab|---5-5-5---5-5-5---5-5---5-5--------5-3-5---3---------------|
Db|------------------------------------------------------------|
pm    .....   .....   ...   ...

eb|----------------------------------------------------------|
Bb|----------------------------------------------------------|
Gb|-12^--(12)---12^p10---------------------------------------|
Db|----------------------12----10h12p10----------------------|
Ab|-------------------------------------12p10-10\8--10^---8--|
Db|----------------------------------------------------------|

eb|----------------------------------------------------------------|
Bb|-----------13--13--13--11---10h11p10----------------------------|
Gb|--9-----9-----------------------------10------------------------|
Db|------------------------------------------12--------------10-12-|
Ab|--------------------------------------------------8-10-12-------|
Db|----------------------------------------------------------------|
pm                                                   ..............
[ Tab from: http://www.guitartabs.cc/tabs/a/alice_in_chains/them_bones_tab_ver_3.html ]
eb|----------------------------------------------------------------|
Bb|------10h11-p10--------10-11-13^--11-13-11--10-------8-10-10^---|
Gb|-9-10-----------------------------------------------------------|
Db|----------------------------------------------------------------|
Ab|----------------------------------------------------------------|
Db|----------------------------------------------------------------|
pm......

eb|-15^-----15--13-----13--------------------20^----20--18--17-----|
Bb|-----------------15----15--15^----15------------------------20--|
Gb|----------------------------------------------------------------|
Db|----------------------------------------------------------------|
Ab|----------------------------------------------------------------|
Db|----------------------------------------------------------------|

eb|-17--------------------------------------------------------------|
Bb|-----20^--20--18-----18------18h20p18----18h20p18----18h20p18----|
Gb|-----------------19------19-----------19----------19----------19-|
Db|-----------------------------------------------------------------|
Ab|-----------------------------------------------------------------|
Db|-----------------------------------------------------------------|

eb|-----------------------------------------------------------------|
Bb|-18h20p18----18h20p18----18h20p18----18h20p18----18--20^--20--18-|
Gb|----------19----------19----------19----------19-----------------|
Db|-----------------------------------------------------------------|
Ab|-----------------------------------------------------------------|
Db|-----------------------------------------------------------------|

gradual bend         ************************************
eb|-----------------------------------------------------------------|
Bb|-----18----------------------------------------------------------|
Gb|--19----19--19--/12^--^--12^--12^--12^--12^--12^--12^--12^p10----|
Db|--------------------------------------------------------------12-|
Ab|-----------------------------------------------------------------|
Db|-----------------------------------------------------------------|
w/wah        .......................................................

continued: w/wah
eb|----------------------------------------------------------------|
Bb|----------------------------------------------------------------|
Gb|-10---------10--------------------------------------------------|
Db|-------12---------12----10p12--12--12--12--10--10---------------|
Ab|---------------------------------------------------12\----------|
Db|----------------------------------------------------------------|



         Outro:
eb|-----------------------------------------------|
Bb|-------------------------------------------10--|
Gb|--------------------------------------------9--|
Db|--------------------------------------9/11-----|
Ab|--/8-----8-----8--8--8--7---7--7--7------------|
Db|--/8-----8-----8--8--8--7---7--7--7------------|

eb|---------------------------------------------------|
Bb|---------------------------------------------------|
Gb|---------------------------------------------------|
Db|---------------------------------------------------|
Ab|--10---10-----10--10--10--9----9--9--9--9--8--8--0-|
Db|--10---10-----10--10--10--9----9--9--9--9--8--8--0-|

eb|-----------------------------------------------|
Bb|-------------------------------------------10--|
Gb|--------------------------------------------9--|
Db|--------------------------------------9/11-----|
Ab|--/8-----8-----8--8--8--7---7--7--7------------|
Db|--/8-----8-----8--8--8--7---7--7--7------------|


eb|------------------------------------------------|
Bb|------------------------------------------------|
Gb|------------------------------------------------|
Db|------------------------------------------------|
Ab|--10---10-----10--10--10--9----9--9--9--9--8-\--|
Db|--10---10-----10--10--10--9----9--9--9--9--8-\--|


Comments