Alice In Chains - Them Bones Chords & Tabs

 

Them Bones Chords & Tabs

Alice In Chains Chords & Tabs

Version: 1 Type: Tab 0 ratings
1 star 2 stars 3 stars 4 stars 5 stars
comments

Them Bones Tab


    Them Bones by Alice in Chains
    
       riff 1  repeat 4xs

    E  -----------------------------------------------
    B  -------------------------------------------------
    G  ------------------------------------------------
    D  -0-0-0-1-1-1-1-2-2-2-3-0-0-0--------------------
    A  -0-0-0-1-1-1-1-2-2-2-3-0-0-0------------------------
    E  -0-0-0-1-1-1-1-2-2-2-3-0-0-0-------------------------


      riff 2
    
    E  ---------------------------------------------------------- 
    B  ---------------------------------------------------------
    G  -0---1---2---3--------------------------------------------
    D  -2---3---4---5----------------------------------------
    A  -2---3---4---5-----------------------------------------
    E  -2---3---4---5---------------------------------------

[ Tab from: http://www.guitartabs.cc/tabs/a/alice_in_chains/them_bones_tab.html ]
       chorus

    E  ------------------------------------------------
    B  ------------------------------------------------------
    G  -------------------------------------------------------
    D  -0-8-8-8-8-8-7-7-7-7-10-10-10-10-10-9-9-9-9-----------
    A  -0-8-8-8-8-8-7-7-7-7-10-10-10-10-10-9-9-9-9---------------
    E  -0-8-8-8-8-8-7-7-7-7-10-10-10-10-10-9-9-9-9------------


       order
      riff 1  
      riff 2  8xs
      chorus
      riff 1  
      riff 2  not to sure i think it is 8xs again
      chorus
      solo    during the solo just play riff 1 about 4 times i think
      chorus  3xs


          I not really sure if that is in the right order
        i don't got a guitar with me. But it's not that hard to 
        figure out. And if any body knows the solo please put it on 
        this website.
Comments