Alice In Chains - Them Bones Chords & Tabs

 

Them Bones Chords & Tabs

Alice In Chains Chords & Tabs

Version: 3 Type: Bass Tab 0 ratings
1 star 2 stars 3 stars 4 stars 5 stars
comments

Them Bones Bass Tab

   
Them Bones by Alice in Chains
Tabbed by Underhander
BASS Tab


Figure 1:
G|-----------------------------------------------|
D|-----------------------------------------------|
A|-5---------------------3-----------------------|
E|---0-1-1-1-2-2-2-3-0-0---0-1-1-1-1-2-2-2-3-0-0-|

Figure 2:
G|-----------------------------------------------|
D|-----------------------------------------------|
A|-5---------------------3-----------------------|
E|---0-1-1-1-2-2-2-3-0-0---0-1-1-1-1-2-2-2-3-----|
[ Tab from: http://www.guitartabs.cc/tabs/a/alice_in_chains/them_bones_btab_ver_3.html ]
Figure 3:
G|-------------------------------------------------------------|
D|-------------------------------------------------------------|
A|-5-------------3---------------5-------------3---------------|
E|---0-1-2-2-3-0---0-1-2-2-3-3-0---0-1-2-2-3-0---0-1-2-2-2-3-0-|

Figure 4:
G|------------------------------------------------------|
D|------------------------------------------------------|
A|------------------------------------------------------|
E|-8-8-8-8-8-7-7-7-7-7-7-7-10-10-10-10-10-9-9-9-9-9-9-8-|


Order:
Figure 1
Figure 2
Figure 3
Figure 3
Figure 4
Figure 1
Figure 1
Figure 1
Figure 1
Figure 4
Figure 1
Figure 2
Figure 4
Figure 4


ENJOY
Comments